Static X - Cold Chords & Tabs

 

Cold Chords & Tabs

Static X Chords & Tabs

Version: 1 Type: Tab 0 ratings
1 star 2 stars 3 stars 4 stars 5 stars
comments

Cold Tab

Static-X - Cold
From the 2001 Warner Bros Album, Machine

This is a reall easy song, but it has some cool riffs
Dropped D tuning, down one step

Main Riff

T----------------------------------------------------------
 ----------------------------------------------------------
A----------------------------------------------------------
 ----5-5---5--5-5------------------------------------------
B----0-0---0--0-0------------------------------------------

Overlapping High Riff
[ Tab from: http://www.guitartabs.cc/tabs/s/static_x/cold_tab.html ]
T-----16--15---18--15--13----------------------------------
 ----------------------------------------------------------
A----------------------------------------------------------
 ----------------------------------------------------------
B----------------------------------------------------------

Chorus Riff

T----------------------------------------------------------
 ----------------------------------------------------------
A----7--7//10----13-12-5-----------------------------------
 ----5--5//8--0--11-10-3-----------------------------------
B----0--0//0--0--0--0--0-----------------------------------

Order:

MR/OHR
MR
Chorus
MR
Chorus
OHR
Chorus
MR
Comments