Static X - Black And White Chords & Tabs

 

Black And White Chords & Tabs

Static X Chords & Tabs

Version: 8 Type: Tab 0 ratings
1 star 2 stars 3 stars 4 stars 5 stars
comments

Black And White Tab

   
Tuning C G C F A D


INTRO
|------------------------|------------------------|------------------------
|------------------------|------------------------|------------------------
|-333--33333---333--333--|-333--33333---333--333--|-333--33333---333--333--
|-222--22222--0222--2220-|-222--22222--0222--2220-|-222--22222--0222--2220-
|-111--11111--0111--1110-|-111--11111--0111--1110-|-111--11111--0111--1110-
|-------------0--------0-|-------------0--------0-|-------------0--------0-
|--------------------------|
|--------------------------|
|-333--33333---333--333--3-|
|-222--22222--0222--2220-2-|
|-111--11111--0111--1110-1-|
|-------------0--------0---|

VERSE
|---------------------------------------------------------|
|---------------------------------------------------------|
|-------------------------------------------------------3-|
|-------------------------------------------------------2-| x2
|-------------------------------------------------------1-| 
|---------------------------------------------------------|
Lost in my own world, lost in my own world, lost in my.....

|---------------------------------------------------------|
|---------------------------------------------------------|
|-------------------------------------------------------3-|
|-------------------------------------------------------2-| x2
|-------------------------------------------------------1-| 
|---------------------------------------------------------|
Getting to the right, getting to the wrong, getting mine...
[ Tab from: http://www.guitartabs.cc/tabs/s/static_x/black_and_white_tab_ver_8.html ]
CHORUS
|-----------------------------------------------------------------|
|-----------------------------------------------------------------|
|-----------------------------------------------------------------|
|-1----------------3-----------------4---3------------------------|
|-1----------------3-----------------4---3------------------------|
|-1----------------3-----------------4---3------------------------|
    Losing your mind, losing your mind, its blurring, its fading...

|-----------------------------------------------|
|-----------------------------------------------|
|-----------------------------------------------|
|-1-----3--------4-----3------------------------|
|-1-----3--------4-----3------------------------|
|-1-----3--------4-----3------------------------|
   Your souls on fire, its black and white!

BACK TO INTRO, PLAY ONCE

VERSE 2 (Same as verse one)
|---------------------------------------------------------|
|---------------------------------------------------------|
|-------------------------------------------------------3-|
|-------------------------------------------------------2-| x2
|-------------------------------------------------------1-| 
|---------------------------------------------------------|
Burning inside, burning inside, burning into white.........

|---------------------------------------------------------|
|---------------------------------------------------------|
|-------------------------------------------------------3-|
|-------------------------------------------------------2-|
x2
|-------------------------------------------------------1-| 
|---------------------------------------------------------|
Yourself collides, yourself collides, yourself into mine...
Comments