Static X - Black And White Chords & Tabs

 

Black And White Chords & Tabs

Static X Chords & Tabs

Version: 2 Type: Tab 0 ratings
1 star 2 stars 3 stars 4 stars 5 stars
comments

Black And White Tab

   
Black and White

Tuning: C,G,C,F,A,D

Intro

D|------------|
A|------------|
F|3-----3-----|
C|3--0--3--000|
G|1--0--1--000|
C|---0-----000|


Verse

D|-----|
A|-----|
F|--3--|
C|--3--|
G|--1--|
C|-----|
 
Chorus
For this let the notes ring..
[ Tab from: http://www.guitartabs.cc/tabs/s/static_x/black_and_white_tab_ver_2.html ]
D|-------------------------------------------------------------
A|-------------------------------------------------------------
F|-------------------------------------------------------------
C|1-----------3-----------------4----------3-------------------
G|1-----------3-----------------4----------3-------------------
C|1-----------3-----------------4----------3-------------------
  Losing your mind. Losing your mind. It's blurring it's fading.


Just repeat this for the other part and the bit that goes "Blurring the light" and 
put the notes where you think they belong. 


That's it the ending's the same as the Intro easy song to play.
By the way if u think it's wrong then watch the video.










Comments