Static X - Black And White Chords & Tabs

 

Black And White Chords & Tabs

Static X Chords & Tabs

Version: 1 Type: Tab 0 ratings
1 star 2 stars 3 stars 4 stars 5 stars
comments

Black And White Tab

   
INTRODUCTION

D--------------------------
A--------------------------
F--------------------------   (X4)
C-888-77777----888-88888---
G-777-77777----777-77777---
C-888-88888-0--888-88888-0-

VERSE

D-----
A-----
F-----  LOST IN MY OWN WORLD LOST IN MY OWN WORLD LOST IN MY
C--8--
G--7--
C--8--

D-----
A-----
F-----  LOST IN MY OWN WORLD LOST IN MY OWN WORLD LOST IN MY
C--8--
G--7--
C--8--

D-----
A-----
F-----  GET INTO THE RATH GET INTO THE RATH GETTING HIGH
C--8--
G--7--
C--8--

D-----
A-----
F-----  GET INTO THE RATH GET INTO THE RATH GETTING HIGH
C--8--
G--7--
C--8--

CHORUS

D----------------------------------------------
A----------------------------------------------
F----------------------------------------------
G-1--------3-------------4--------3------------
G-1--------3-------------4--------3------------
C-1--------3-------------4--------3------------
LOOSING YOUR MIND LOOSING YOUR MIND IT’S BLURING ITS FADING

D----------------------------------------------
A----------------------------------------------
F----------------------------------------------
G-1--3---------4---------3---------------------
G-1--3---------4---------3---------------------
C-1--3---------4---------3---------------------
YOUR SOULS ON FIRE IT’S BLACK AND WHITE


D--------------------------
A--------------------------
F--------------------------   (X2)
C-888-77777----888-88888---
G-777-77777----777-77777---
C-888-88888-0--888-88888-0-

D-----
A-----
F-----  BURNING INSIDE BURNING INSIDE BURNING INTO NIGHT
C--8--
G--7--
C--8--

D-----
A-----
F-----  BURNING INSIDE BURNING INSIDE BURNING INTO NIGHT
C--8--
G--7--
C--8--

D-----
A-----
F-----  YOURSELF COLLIDE YOURSELF COLLIDE YOURSELF GET TO MY
C--8--
G--7--
C--8--

D-----
A-----
F---YOURSELF COLLIDE YOURSELF COLLIDE YOURSELF SPLINTERS LIKE
C--8--
G--7--
C--8--




CHORUS

D----------------------------------------------
A----------------------------------------------
F----------------------------------------------
G-1--------3-------------4--------3------------
G-1--------3-------------4--------3------------
C-1--------3-------------4--------3------------
LOOSING YOUR MIND LOOSING YOUR MIND IT’S BLURING ITS FADING

D----------------------------------------------
A----------------------------------------------
F----------------------------------------------
G-1--3---------4---------3---------------------
G-1--3---------4---------3---------------------
C-1--3---------4---------3---------------------
YOUR SOULS ON FIRE IT’S BLACK AND WHITE

D--------------------------
A--------------------------
F--------------------------   (X4)
C-888-77777----888-88888---
G-777-77777----777-77777---
C-888-88888-0--888-88888-0-
[ Tab from: http://www.guitartabs.cc/tabs/s/static_x/black_and_white_tab.html ]
D----------------------------------------------
A----------------------------------------------
F----------------------------------------------
G-1--------3-------------4--------3------------
G-1--------3-------------4--------3------------
C-1--------3-------------4--------3------------
LOOSING YOUR MIND LOOSING YOUR MIND IT’S BLURING ITS FADING      
                                                                  
D----------------------------------------------
A----------------------------------------------
F----------------------------------------------
G-1--3---------4---------3---------------------
G-1--3---------4---------3---------------------
C-1--3---------4---------3---------------------
YOUR SOULS ON FIRE IT’S BLACK AND WHITE

D----------------------------------------------
A----------------------------------------------
F----------------------------------------------
G-1--------3-------------4--------3------------
G-1--------3-------------4--------3------------
C-1--------3-------------4--------3------------
LURING THE LIGHT   LURING THE LIGHT  IT’S OURS FOR THE TAKING
                                                                  
D----------------------------------------------
A----------------------------------------------
F----------------------------------------------
G-1--3---------4---------3---------------------
G-1--3---------4---------3---------------------
C-1--3---------4---------3---------------------
  FLICKERING COLOURS ITS BLACK AND WHITE


SHORT DRUM SOLO


INTERLUDE/SOLO   (NOT 100% BUT IT SOUNDS GOOD)

D---------------------------
A---------------------------
F---------------------------      (X4)
C--777---8-9-9-8-----8-9-9-8
G--777-7----------77--------
C--888----------88----------

CHORUS

D----------------------------------------------
A----------------------------------------------
F----------------------------------------------
G-1--------3-------------4--------3------------
G-1--------3-------------4--------3------------
C-1--------3-------------4--------3------------
LOOSING YOUR MIND LOOSING YOUR MIND IT’S BLURING ITS FADING      
                                                                  
D----------------------------------------------
A----------------------------------------------
F----------------------------------------------
G-1--3---------4---------3---------------------
G-1--3---------4---------3---------------------
C-1--3---------4---------3---------------------
YOUR SOULS ON FIRE IT’S BLACK AND WHITE

D----------------------------------------------
A----------------------------------------------
F----------------------------------------------
G-1--------3-------------4--------3------------
G-1--------3-------------4--------3------------
C-1--------3-------------4--------3------------
LURING THE LIGHT   LURING THE LIGHT  IT’S OURS FOR THE TAKING
                                                                  

D----------------------------------------------
A----------------------------------------------
F----------------------------------------------
G-1--3---------4---------3---------------------
G-1--3---------4---------3---------------------
C-1--3---------4---------3---------------------
  FLICKERING COLOURS ITS BLACK AND WHITE


ENDING

D--------------------------
A--------------------------
F--------------------------   (X8)
C-888-77777----888-88888---
G-777-77777----777-77777---
C-888-88888-0--888-88888-0-
      LOST IN MY OWN WORLD

PIECE OF PISS TO PLAY AND GOOD LUCK IN PLAYING IT!
ANY STATIC X, LIMP BIZKIT OR SLIPKNOT TABS, E-MAIL ME AT
“JOHN_SATAN_BRADLEY@LIMPBIZKITFAN.COM”

D    IIIII   EEEEE
DD     I     E
D D    I     EEEEE
DD     I     E
D    IIIII   EEEEE













Comments