State Radio - Right Me Up Live Chords & Tabs

 

Right Me Up Live Chords & Tabs

State Radio Chords & Tabs

Version: 1 Type: Tab 0 ratings
1 star 2 stars 3 stars 4 stars 5 stars
comments

Right Me Up Live Tab

   
State Radio
Unreleased Live (02/12/05)
Right Me Up
Tabbed by Owen Sakovics
Tuning: Eb Ab Db Gb Bb Eb

 C	G	Dm	F
-3------3-------5-------1--|
-5------3-------6-------1--|
-5------4-------7-------2--|	x4
-5------5-------7-------3--|
-3------5-------5-------3--|
--------3---------------1--|

 C	    G	       Dm	  F
---------------------------------------------|
---------------------------------------------|
---------------------------------------------|	x4
---------------------------------------------|
-3-3-3-3-3-------------5-5-5-5-5-------------|
------------3-3-3-3-3-------------1-1-1-1-1--|

 C	G	Dm	F
-3------3-------5-------1--|
-5------3-------6-------1--|
-5------4-------7-------2--|	x2
-5------5-------7-------3--|
-3------5-------5-------3--|
--------3---------------1--|

 C	    G	       Dm	  F
---------------------------------------------|
---------------------------------------------|
---------------------------------------------|	x5
---------------------------------------------|
-3-3-3-3-3-------------5-5-5-5-5-------------|
------------3-3-3-3-3-------------1-1-1-1-1--|

 C	G	Dm	F
-3------3-------5-------1--|
-5------3-------6-------1--|
-5------4-------7-------2--|	x2
-5------5-------7-------3--|
-3------5-------5-------3--|
--------3---------------1--|
[ Tab from: http://www.guitartabs.cc/tabs/s/state_radio/right_me_up_live_tab.html ]
 Dm	F	Am	G	Dm	F	Am	E
-5------1-------5-------3-------5-------1-------5-------0--|
-6------1-------5-------3-------6-------1-------5-------0--|
-7------2-------5-------4-------7-------2-------5-------1--|	x1
-7------3-------7-------5-------7-------3-------7-------2--|
-5------3-------7-------5-------5-------3-------7-------2--|
--------1-------5-------3---------------1-------5----------|

 F	C	Dm	Am	F	C	G	Am
-1------3-------5-------5-------1-------3-------3-------5--|
-1------5-------6-------5-------1-------5-------3-------5--|
-2------5-------7-------5-------2-------5-------4-------6--|	x2
-3------5-------7-------7-------3-------5-------5-------7--|
-3------3-------5-------7-------3-------3-------5-------7--|
-1----------------------5-------1---------------3-------5--|


 C	G	Dm	F
-3------3-------5-------1--|
-5------3-------6-------1--|
-5------4-------7-------2--|	x10
-5------5-------7-------3--|
-3------5-------5-------3--|
--------3---------------1--|

 C	    G	       Dm	  F
---------------------------------------------|
---------------------------------------------|
---------------------------------------------|	x2
---------------------------------------------|
-3-3-3-3-3-------------5-5-5-5-5-------------|
------------3-3-3-3-3-------------1-1-1-1-1--|

 C	G	Dm	F	C	G	Dm	F	C
-3------3-------5-------1-------3-------3-------5-------1-------3--|
-5------3-------6-------1-------5-------3-------6-------1-------5--|
-5------4-------7-------2-------5-------4-------7-------2-------5--|	x1
-5------5-------7-------3-------5-------5-------7-------3-------5--|
-3------5-------5-------3-------3-------5-------5-------3-------3--|
--------3---------------1---------------3---------------1----------|
Comments