State Radio - Mountain Chords & Tabs

 

Mountain Chords & Tabs

State Radio Chords & Tabs

Version: 1 Type: Bass Tab 0 ratings
1 star 2 stars 3 stars 4 stars 5 stars
comments

Mountain Bass Tab

   
www.tabsinonefellswoop.com
State Radio
Flag of the Shiners
Mountain
Tabbed by Owen Sakovics
Tuning: E A D G B E **For Live Recordings Tune to Eb**
www.tabsinonefellswoop.com

---------2-4--2-4-2-4h5p4----|
-2h4-2h4------------------7--|	x3
-----------------------------|
-----------------------------|

---------2----4-4-----2----4-4-----4--2--|
-2-4--4----4-------2----4-------2--------|	x2
-----------------------------------------|
-----------------------------------------|

----------------------------------4-4-4-4-4-4-4-4-4-4-4-4-4-4-4-4--|
-4-4-4-4-4-4-4-4-4-4-4-4-4-4-4-4-----------------------------------|	x2
-------------------------------------------------------------------|
-------------------------------------------------------------------|

------6----4-6--7--6------------6----4-6--7--6-----4--------|
-7--9-----------------7----7--9-----------------7-----------|	x1
--------7-------------------------7-------------------------|
------------------------------------------------------4--5--|

-6-6--6-6--9-9--9-9----------------------|
---------------------7-7--7-7--7-7--7-7--|	x3
-----------------------------------------|
-----------------------------------------|

-6-6--6-6--9-9--9-9s11----------------------|
------------------------7-7--7-7--7-7--7-7--|	x1
--------------------------------------------|
--------------------------------------------|

------------------------------------------------------|
------------------0--0-------------------0--0--0h2-0--|	x1
-------2-2h4p2p0--------------2-2h4p2p0---------------|
-2--2-------------------2--2--------------------------|

----------------2--2h4--2-------------|
-2--2--2-2--2h4------------0--0--0-0--|	x1
--------------------------------------|
--------------------------------------|

---------2-4--2-4-2-4h5p4----|
-2h4-2h4------------------7--|	x3
-----------------------------|
-----------------------------|

---------2----4-4-----2----4-4-----4--2--|
-2-4--4----4-------2----4-------2--------|	x2
-----------------------------------------|
-----------------------------------------|

------------------------------------------------------------------2----|
-4-4-4-4-4-4-4-4-4-4-4-4-4-4-4-4-4-4-4-4-4-4-4-4-4-4-4-4-4-4-4-4-----2-|	x1
-----------------------------------------------------------------------|
-----------------------------------------------------------------------|
[ Tab from: http://www.guitartabs.cc/tabs/s/state_radio/mountain_btab.html ]
------------------------------------------------------------------|
-4-4-4-4-4-4-4-4-4-4-4-4-4-4-4-4-4-4-4-4-4-4-4-4-4-4-4-4-4-4-4-4--|	x1
------------------------------------------------------------------|
------------------------------------------------------------------|

-------------------------|
-7--7-9-9--9-------6--7--|	x1
----------------9--------|
-------------------------|

-6-6--6-6--9-9--9-9h11----------------------|
------------------------7-7--7-7--7-7--7-7--|	x1
--------------------------------------------|
--------------------------------------------|

-6-6--6-6--9-9--9-9-------------------9--|
---------------------7-7--7-7--7-7--7----|	x1
-----------------------------------------|
-----------------------------------------|

-6-6--6-6--9-9--9-9h11-------------------9--|
------------------------7-7--7-7--7-7--7----|	x1
--------------------------------------------|
--------------------------------------------|

-----------13---------11----------------------|
-11-11--11-----9-9--9-----7-7--7-7---7---7----|	x1
-----------------------------------7---7---7--|
----------------------------------------------|

--------------------------------------------------------------|
------------------0--0--0h2-0--------------------0--0--0h2-0--|	x1
-------2-2h4p2p0----------------------2-2h4p2p0---------------|
-2--2---------------------------2--2--------------------------|

------------2--2h4--2-----|
-2--2---2h4------------0--|	x1
--------------------------|
--------------------------|

------------------------------------------------------|
------------------0--0-------------------0--0--0h2-0--|	x1
-------2-2h4p2p0--------------2-2h4p2p0---------------|
-2--2-------------------2--2--------------------------|

----------------------|
-2--2---2h4--2--4--0--|	x1
----------------------|
----------------------|

---------2-4--2-4-2-4h5p4----|
-2h4-2h4------------------7--|	x2
-----------------------------|
-----------------------------|

---------2-4--6--7-6-----------7-6-----------7-6---------------------|
-2h4-2h4-------------9-7-----------9-7-9--9------9-7-7---------------|	x1
-------------------------9--9---------------------------7--9--9-9-9--|
---------------------------------------------------------------------|

-7-6-----------7-6-----------7-6---------------------|
-----9-7-----------9-7-9--9------9-7-7---------------|	x4
---------9--9---------------------------7--9--9-9-9--|
-----------------------------------------------------|

-------7-6-----------7-6-------------|
-----------9-7-9--9------9-7-7-------|	x1
-9--9--------------------------7--9--|
-------------------------------------|
Comments