State Radio - Legacy Of Margaret Brown Chords & Tabs

 

Legacy Of Margaret Brown Chords & Tabs

State Radio Chords & Tabs

Version: 1 Type: Tab 0 ratings
1 star 2 stars 3 stars 4 stars 5 stars
comments

Legacy Of Margaret Brown Tab

   
State Radio
Flag of the Shiners
The Legacy of Margaret Brown
Tabbed by Owen Sakovics
Tuning: E A D G B E **For Live Recordings Tune to Eb**
www.tabsinonefellswoop.com

 D#m    D#m	D#m    D#m
-6------6-------6------6--|
-7------7-------7------7--|
-8------8-------8------8--|	x1
-8------8-------8------8--|
-6------6-------6------6--|
--------------------------|

 D#m	D#m	G#	D#m
-6------6-------4-------6--|
-7------7-------4-------7--|
-8------8-------5-------8--|	x3
-8------8-------6-------8--|
-6------6-------6-------6--|
----------------4----------|

 D#m	D#m	A#
-6------6-------6--|
-7------7-------6--|
-8------8-------7--|	x1
-8------8-------8--|
-6------6-------8--|
----------------6--|

 D#m	D#m	G#	G#	B	A#
-6------6-------4-------4-------7-------6--|
-7------7-------4-------4-------7-------6--|
-8------8-------5-------5-------8-------7--|	x1
-8------8-------6-------6-------9-------8--|
-6------6-------6-------6-------9-------8--|
----------------4-------4-------7-------6--|
[ Tab from: http://www.guitartabs.cc/tabs/s/state_radio/legacy_of_margaret_brown_tab.html ]
 D#m	D#m	G#	A#
-6------6-------4-------6--|
-7------7-------4-------6--|
-8------8-------5-------7--|	x1
-8------8-------6-------8--|
-6------6-------6-------8--|
----------------4-------6--|

 F#	A#	D#m	B	G#	C#	A#
-2------6-------6-------7-------4-------4-------6--|
-2------6-------7-------7-------4-------6-------6--|
-3------7-------8-------8-------5-------6-------7--|	x1
-4------8-------8-------9-------6-------6-------8--|
-4------8-------6-------9-------6-------4-------8--|
-2------6---------------7-------4---------------6--|

 D#m	A#	D#m	B	G#	B	C#	A#
-6------6-------6-------7-------4-------7-------4-------6--|
-7------6-------7-------7-------4-------7-------6-------6--|
-8------7-------8-------8-------5-------8-------6-------7--|	x1
-8------8-------8-------9-------6-------9-------6-------8--|
-6------8-------6-------9-------6-------9-------4-------8--|
--------6---------------7-------4-------7---------------6--|

 D#m    D#m	G#     D#m
-6------6-------6------6--|
-7------7-------7------7--|
-8------8-------8------8--|	x1
-8------8-------8------8--|
-6------6-------6------6--|
--------------------------|

 D#m	A#	D#m	D#m
-6------6-------6-------6--|
-7------6-------7-------7--|
-8------7-------8-------8--|	x8
-8------8-------8-------8--|
-6------8-------6-------6--|
--------6------------------|
Comments