State Radio - Gunship Politico Chords & Tabs

 

Gunship Politico Chords & Tabs

State Radio Chords & Tabs

Version: 1 Type: Tab 0 ratings
1 star 2 stars 3 stars 4 stars 5 stars
comments

Gunship Politico Tab

   
State Radio
Flag of the Shiners
Gunship Politico
Tabbed by "T-Bizzi" & Owen Sakovics
Tuning: E A D G B E **For Live Recordings Tune to Eb**
www.tabsinonefellswoop.com

**The lead fills are at the bottom of the tablature**

------------------------------|
------------------------------|
---3-3h5----------------------|	x2
-3---------3h5h6-------5h6p5--|
---------4---------3-6--------|
-----------------4------------|

 Fm	C#	G#	D#
---------------------------|
---------------------------|
-10-----6---------------8--|	x2
-10-----6-------6-------8--|
-8------4-------6-------6--|
----------------4----------|

 Fm	C#      G#	D#
-8------4-------4-------6--|
-9------6-------4-------8--|
-10-----6-------5-------8--|	x2
-10-----6-------6-------8--|
-8------4-------6-------6--|
----------------4----------|

 A#m	D#	Fm	Fm
-6------6-------8-------8---|
-6------8-------9-------9---|
-6------8-------10------10--|	x2
-8------8-------10------10--|
-8------6-------8-------8---|
-6--------------------------|

 Fm  D#  Fm	D#	Fm  D#  Fm      D#
-8---6---8------6-------8---6---8-------6--|
-9---8---9------8-------9---8---9-------8--|
-10--8---10-----8-------10--8---10------8--|	x2
-10--8---10-----8-------10--8---10------8--|
-8---6---8------6-------8---6---8-------6--|
-------------------------------------------|

 G#	 D#	Fm	A#  C
-4-------6------8-------6---8---|
-4-------8------9-------6---8---|
-5-------8------10------7---9---|	x2
-6-------8------10------8---10--|
-6-------6------8-------8---10--|
-4----------------------6---8---|

 Fm	C#      G#	D#
-8------4-------4-------6--|
-9------6-------4-------8--|
-10-----6-------5-------8--|	x2
-10-----6-------6-------8--|
-8------4-------6-------6--|
----------------4----------|

 A#m	D#	Fm	Fm
-6------6-------8-------8---|
-6------8-------9-------9---|
-6------8-------10------10--|	x2
-8------8-------10------10--|
-8------6-------8-------8---|
-6--------------------------|

 Fm  D#  Fm	D#	Fm  D#  Fm      D#
-8---6---8------6-------8---6---8-------6--|
-9---8---9------8-------9---8---9-------8--|
-10--8---10-----8-------10--8---10------8--|	x2
-10--8---10-----8-------10--8---10------8--|
-8---6---8------6-------8---6---8-------6--|
-------------------------------------------|

 G#	D#	Fm	A#  C
-4------6-------8-------6---8---|
-4------8-------9-------6---8---|
-5------8-------10------7---9---|	x2
-6------8-------10------8---10--|
-6------6-------8-------8---10--|
-4----------------------6---8---|

 Fm	C#      G#	D#
-8------4-------4-------6--|
-9------6-------4-------8--|
-10-----6-------5-------8--|	x4
-10-----6-------6-------8--|
-8------4-------6-------6--|
----------------4----------|

 A#m		A#m	C#	A#m		A#m	C#
-6------9-------6-------4-------6-------9-------6-------4--|
-6------8-------6-------6-------6-------8-------6-------6--|
-6------x-------6-------6-------6-------x-------6-------6--|	x1
-8------x-------8-------6-------8-------x-------8-------6--|
-8--------------8-------4-------8---------------8-------4--|
-6--------------6---------------6---------------6----------|

 Fm	A#	Fm	D#	A#	C#
-8------6-------8-------6-------6-------4--|
-9------6-------9-------8-------6-------6--|
-10-----7-------10------8-------7-------6--|	x1
-10-----8-------10------8-------8-------6--|
-8------8-------8-------6-------8-------4--|
--------6-----------------------6----------|

 G#	D#	G#	C#
-4------6-------4-------4--|
-4------8-------4-------6--|
-5------8-------5-------6--|	x2
-6------8-------6-------6--|
-6------6-------6-------4--|
-4--------------4----------|
[ Tab from: http://www.guitartabs.cc/tabs/s/state_radio/gunship_politico_tab.html ]
 Fm	C#     G#	D#
-8------4------4--------6--|
-9------6------4--------8--|
-10-----6------5--------8--|	x6
-10-----6------6--------8--|
-8------4------6--------6--|
---------------4-----------|

 Fm	C#	G#	D#
---------------------------|
---------------------------|
-10-----6---------------8--|	x2
-10-----6-------6-------8--|
-8------4-------6-------6--|
----------------4----------|

 Fm	C#      G#	D#
-8------4-------4-------6--|
-9------6-------4-------8--|
-10-----6-------5-------8--|	x5
-10-----6-------6-------8--|
-8------4-------6-------6--|
----------------4----------|

 Fm	C#      G#	D#	Fm
-8------4-------4-------6-------8---|
-9------6-------4-------8-------9---|
-10-----6-------5-------8-------10--|	x1
-10-----6-------6-------8-------10--|
-8------4-------6-------6-------8---|
----------------4-------------------|

LEAD FILLS:
-------------------------------------------------------------------|
-------------------------------------------------------------------|
-10b12-10---10b12r-8---10b12-10---10b12r-88---10b12-10---10b12r-8--|
-------------------------------------------------------------------|
-------------------------------------------------------------------|
-------------------------------------------------------------------|

----------------------------------------------------------------------------|
----------------------------------------------------------------------------|
-10b12-10---10b12r-8------8-8h10--------8-8h10------8-------------8-8h10-8--|
---------------------8-10----------8-10----------10---8s10---8-10-----------|
----------------------------------------------------------------------------|
----------------------------------------------------------------------------|

------------------------------------------------------------------------------------|
------------------------------------------------------------------------------------|
-10-10h12------10h12----10------------10h12-10---10h12------10h12----10-------------|
----------13---------13----10-13-----------------------13---------13----10-13-------|
---------------------------------13-------------------------------------------13----|
------------------------------------------------------------------------------------|

---------------------------------------------------------------------------------------|
------------------8-9---9-8----8-8-9---------------------------------------------------|
----------------8-----------10-------10---10-10-8-10-8--8-8h10-------------------------|
-8--8h10-8-----------------------------------------------------8-8h10--10-10-8---8h10--|
-----------11--------------------------------------------------------------------------|
---------------------------------------------------------------------------------------|

------------------------------------------------------------------------------------------|
------------------------------------------------------------------------------------------|
------8-8h10---8h10-8----8-----------------------------------8------8--8----8--8----8-----|
-8h10-----------------10---10---8h10--8---8h10-8h10-8------------10------10------10----8--|
------------------------------------------------------11-8--------------------------------|
------------------------------------------------------------------------------------------|

----------------------------------------------------------------------------|
------------------------------------------9---------------------------------|
-10b12-10---------------------8-8--8h10-----10-8-----8----------------------|
-----------8--8h10--10-10-8-----------------------10----8h10----8--8h10-----|
-------------------------------------------------------------11----------8--|
----------------------------------------------------------------------------|

-------------------------------------------------------|
-------------------------------------------------------|
-----------------8------------------------------6-6h8--|
-8--8h10--8h10------8--8h10-8-----8-----------8--------|
-------------------------------11---11-8-88------------|
-------------------------------------------------------|

**AFTER THIS IT IS TOO DIFFICULT TO DISTINGUISH THE LEAD FILLS**
Comments