State Radio - Diner Song Chords & Tabs

 

Diner Song Chords & Tabs

State Radio Chords & Tabs

Version: 1 Type: Tab 0 ratings
1 star 2 stars 3 stars 4 stars 5 stars
comments

Diner Song Tab

   
State Radio
Peace Between Nations
The Diner Song
Tabbed by Owen Sakovics
Tuning: Eb Ab Db Gb Bb Eb
www.tabsinonefellswoop.com

 C#	C# B  A# G#
-4------------------|
-6------------------|
-6------6--4--3-----|	x1
-6------6--4--3--6--|
-4------4--2--1--6--|
-----------------4--|

 F#	C#	D#m	C#
-2------4-------6-------4--|
-2------6-------7-------6--|
-3------6-------8-------6--|	x3
-4------6-------8-------6--|
-4------4-------6-------4--|
-2-------------------------|

 F#	A#m	B	C#
-2------1-------2-------4--|
-2------2-------4-------6--|
-3------3-------4-------6--|	x1
-4------3-------4-------6--|
-4------1-------2-------4--|
-2-------------------------|

 F#	C#	D#m	C#
---------------------------|
---------------------------|
---------------------------|	x3
--------6-------8-------6--|
-4------4-------6-------4--|
-2-------------------------|

 F#	A#m	B	C#
---------------------------|
---------------------------|
---------------------------|	x1
--------3-------4-------6--|
-4------1-------2-------4--|
-2-------------------------|

 F#	C#	D#m	C#
-2------4-------6-------4--|
-2------6-------7-------6--|
-3------6-------8-------6--|	x3
-4------6-------8-------6--|
-4------4-------6-------4--|
-2-------------------------|

 F#	A#m	B	C#
-2------6-------7-------9---|
-2------6-------8-------9---|
-3------6-------9-------10--|	x1
-4------8-------9-------11--|
-4------6-------7-------9---|
-2--------------------------|

 F#	C#	D#m	C#
-2------4-------6-------4--|
-2------6-------7-------6--|
-3------6-------8-------6--|	x3
-4------6-------8-------6--|
-4------4-------6-------4--|
-2-------------------------|

 F#	A#m	B	C#
-2------1-------2-------4--|
-2------2-------4-------6--|
-3------3-------4-------6--|	x1
-4------3-------4-------6--|
-4------1-------2-------4--|
-2-------------------------|

 F#	C#	D#m	C#
---------------------------|
---------------------------|
---------------------------|	x2
--------6-------8-------6--|
-4------4-------6-------4--|
-2-------------------------|

 F#	A#m	B	C#
---------------------------|
---------------------------|
---------------------------|	x1
--------3-------4-------6--|
-4------1-------2-------4--|
-2-------------------------|

 F#	C#	D#m	C#
-2------4-------6-------4--|
-2------6-------7-------6--|
-3------6-------8-------6--|	x1
-4------6-------8-------6--|
-4------4-------6-------4--|
-2-------------------------|

 F#	A#m	B	C#
-2------1-------2-------4--|
-2------2-------4-------6--|
-3------3-------4-------6--|	x1
-4------3-------4-------6--|
-4------1-------2-------4--|
-2-------------------------|

 F#	C#	D#m	C#
-2------4-------6-------4--|
-2------6-------7-------6--|
-3------6-------8-------6--|	x3
-4------6-------8-------6--|
-4------4-------6-------4--|
-2-------------------------|
[ Tab from: http://www.guitartabs.cc/tabs/s/state_radio/diner_song_tab.html ]
 F#	A#m	B	C#
-2------1-------2-------4--|
-2------2-------4-------6--|
-3------3-------4-------6--|	x1
-4------3-------4-------6--|
-4------1-------2-------4--|
-2-------------------------|

 F#	C#	D#m	C#	F#	A#m	B	C#	F#	C#	D#m	C#
-2------4-------6-------4-------2-------1-------2-------4-------2-------4-------6-------4--|
-2------6-------7-------6-------2-------2-------4-------6-------2-------6-------7-------6--|
-3------6-------8-------6-------3-------3-------4-------6-------3-------6-------8-------6--|	x1
-4------6-------8-------6-------4-------3-------4-------6-------4-------6-------8-------6--|
-4------4-------6-------4-------4-------1-------2-------4-------4-------4-------6-------4--|
-2------------------------------2-------------------------------2--------------------------|

 G 	D	Em	D
-3------5-------7-------5--|
-3------7-------8-------7--|
-4------7-------9-------7--|	x3
-5------7-------9-------7--|
-5------5-------7-------5--|
-3-------------------------|

 G	Bm	C	D
-3------2-------3-------5--|
-3------3-------5-------7--|
-4------4-------5-------7--|	x1
-5------4-------5-------7--|
-5------2-------3-------5--|
-3-------------------------|

 G	D	Em	B	C	D	Em	Em
-3------5-------7-------7-------8-------5-------7-------7--|
-3------7-------8-------7-------8-------7-------8-------8--|
-4------7-------9-------8-------9-------7-------9-------9--|	x1
-5------7-------9-------9-------10------7-------9-------9--|
-5------5-------7-------9-------10------5-------7-------7--|
-3----------------------7-------8--------------------------|

 G	D	Em	B	C	Em	D	D
-3------5-------7-------7-------8-------7-------5-------5--|
-3------7-------8-------7-------8-------8-------7-------7--|
-4------7-------9-------8-------9-------9-------7-------7--|	x1
-5------7-------9-------9-------10------9-------7-------7--|
-5------5-------7-------9-------10------7-------5-------5--|
-3----------------------7-------8--------------------------|

 E	F#	G	A
-0------2-------3-------5--|
-0------2-------3-------5--|
-1------3-------4-------6--|	x1
-2------4-------5-------7--|
-2------4-------5-------7--|
-0------2-------3-------5--|

 G	D	Em	B	C	D	Em	Em
-3------5-------7-------7-------8-------5-------7-------7--|
-3------7-------8-------7-------8-------7-------8-------8--|
-4------7-------9-------8-------9-------7-------9-------9--|	x1
-5------7-------9-------9-------10------7-------9-------9--|
-5------5-------7-------9-------10------5-------7-------7--|
-3----------------------7-------8--------------------------|

 G	D	Em	B	C	Em	D	D  C  B  A  G
-3------5-------7-------7-------8-------7-------5-------5--------------|
-3------7-------8-------7-------8-------8-------7-------7--------------|
-4------7-------9-------8-------9-------9-------7-------7--5--4--------|	x1
-5------7-------9-------9-------10------9-------7-------7--5--4--2--5--|
-5------5-------7-------9-------10------7-------5-------5--3--2--0--5--|
-3----------------------7-------8-----------------------------------3--|
Comments