State Radio - Camilo Live Chords & Tabs

 

Camilo Live Chords & Tabs

State Radio Chords & Tabs

Version: 1 Type: Tab 0 ratings
1 star 2 stars 3 stars 4 stars 5 stars
comments

Camilo Live Tab

   
State Radio
Unreleased Live (09/30/04)
Camilo
Tabbed by Owen Sakovics
Tuning: Eb Ab Db Gb Bb Eb

---1-----------------1---------------------------------------0-0---0--|
---3-3-3s5-5-5s3-3---3-3-----------------3-3-3s5---5-----0---3-----3--|
-2---2-2s5---5s2-2-2---2--0h2p0---0h2-0--2-2-2s5-5---5s7-7---4---4-4--|
-0-----------------0------------3--------0-0---------------5-5-----5--|
----------------------------------------------------------------------|
----------------------------------------------------------------------|

 Dm	Dm	Dm	Dm	G	G	Dm 	      Dm
-1------1-------1-------1-------3-------3-------1--0----0-0h1-1---------|
-3------3-------3-------3-------3-------3-------3--3----3-3---3----3----|
-2------2-------2-------2-------0-------0-------2--2----2-2---2--2-2-2--|	x1
-0------0-------0-------0-------0-------0-------0--0----0-0---0--0---0--|
--------------------------------2-------2-------------------------------|
--------------------------------3-------3-------------------------------|

 Dm	Dm	Dm	Dm	G	G	Dm 	      Dm
-1------1-------1-------1-------3-----3-3-------1--0----0-0h1-1--0--|
-3------3-------3-------3-------3-----3-3-------3--3----3-3---3--3--|
-2------2-------2-------2-------0-----0-0-------2--2----2-2---2--2--|	x1
-0------0-------0-------0-------0-----0-0-------0--0----0-0---0--0--|
--------------------------------2-0h2-2-2---------------------------|
--------------------------------3-3---3-3---------------------------|

 Dm	Bb	F	C
-1------1-------1-------0--|
-3------3-------1-------1--|
-2------3-------2-------0--|	x3
-0------3-------3-------2--|
--------1-------3-------3--|
----------------1----------|

 Dm	Bb	F	C	   	Dm
-1------1-------1-------0-------0-------1------0--|
-3------3-------1-------1-------3-------3------3--|
-2------3-------2-------0-------2-------2------2--|	x1
-0------3-------3-------2-------0-------0------0--|
--------1-------3-------3-------------------------|
----------------1---------------------------------|

 Dm	Bb	F	C
-1------1-------1-------0------|
-3------3-------1-------1---1--|
-2------3-------2-------0---0--|	x1
-0------3-------3-------2---0--|
--------1-------3-------3---3--|
----------------1--------------|
[ Tab from: http://www.guitartabs.cc/tabs/s/state_radio/camilo_live_tab.html ]
 Dm	Bb	F	C
-1------1-------1-------0-------0--|
-3------3-------1-------1-1-----1--|
-2------3-------2-------0-0-----0--|	x1
-0------3-------3-------2-0-0h2-2--|
--------1-------3-------3-3-3---3--|
----------------1------------------|

 Dm	Bb	F	C
-1------1-------1-------0------0--|
-3------3-------1-------1------1--|
-2------3-------2-------0------0--|	x2
-0------3-------3-------2--0h2-2--|
--------1-------3-------3--3---3--|
----------------1-----------------|

 Dm	F	C	C	Dm	F	C	Dm
-1------1-------0-------0-------1-------1-------0-------1--|
-3------1-------1-------1-------3-------1-------1-------3--|
-2------2-------0-------0-------2-------2-------0-------2--|	x1
-0------3-------2-------2-------0-------3-------2-------0--|
--------3-------3-------3---------------3-------3----------|
--------1-------------------------------1------------------|

 Dm	F	C	C	Dm	F	C	Dm	C	Dm
-1------1-------0-------0-------1-------1-------0-------1-------0-------1-------0--|
-3------1-------1-------1-------3-------1-------1-------3-------1-------3-------3--|
-2------2-------0-------0-------2-------2-------0-------2-------0-------2-------2--|	x1
-0------3-------2-------2-------0-------3-------2-------0-------2-------0-------0--|
--------3-------3-------3---------------3-------3---------------3------------------|
--------1-------------------------------1------------------------------------------|

 Dm	Bb	F	C
-1------1-------1-------0--|
-3------3-------1-------1--|
-2------3-------2-------0--|	x3
-0------3-------3-------2--|
--------1-------3-------3--|
----------------1----------|

 Dm	Bb	F	C	G
-1------1-------1-------0-------3-------3--|
-3------3-------1-------1-------3-------3--|
-2------3-------2-------0-------4-------5--|	x1
-0------3-------3-------2-------5-------3--|
--------1-------3-------3-------5-------5--|
----------------1---------------3-------3--|

 Dm	Bb	F	C
-1------1-------1-------0--|
-3------3-------1-------1--|
-2------3-------2-------0--|	x3
-0------3-------3-------2--|
--------1-------3-------3--|
----------------1----------|

 Dm	Bb	F	C	G	    G
-1------1-------1-------0-------3-------3---3--|
-3------3-------1-------1-------3-------3---3--|
-2------3-------2-------0-------4-------5---4--|	x1
-0------3-------3-------2-------5-------3---5--|
--------1-------3-------3-------5-------5---5--|
----------------1---------------3-------3---3--|

 Dm	F	C	Dm
-1------1-------0-------1--|
-3------1-------1-------3--|
-2------2-------0-------2--|	x6
-0------3-------2-------0--|
--------3-------3----------|
--------1------------------|
Comments