State Radio - Calvados Chopper Chords & Tabs

 

Calvados Chopper Chords & Tabs

State Radio Chords & Tabs

Version: 1 Type: Tab 0 ratings
1 star 2 stars 3 stars 4 stars 5 stars
comments

Calvados Chopper Tab

   
State Radio
Peace Between Nations
Calvados Chopper
Tabbed by Owen Sakovics
Tuning: Eb Ab Db Gb Bb Eb
www.tabsinonefellswoop.com

xxxxxxxxxxxx - Play chokes in the shape of the chord

------------------------------------------------------------------------------|
------------------------------------------------------------------------------|
-------0h2--2-2-0h2p0---0-----0---0----0h2p0---0-----0---0----0h2p0---0-------|	x1
-0-3h5----------------3---3s5---5----5-------3---3s5---5----5-------3---0--0--|
------------------------------------------------------------------------------|
------------------------------------------------------------------------------|

---------------------------------------------------------------------------|
-----------3---------------------------------------------------------------|
-------0h2---0h2p0---0-----0---0----0h2p0---0-----0---0----0h2p0---0-------|	x1
-0-3h5-------------3---3s5---5----5-------3---3s5---5----5-------3---0--0--|
---------------------------------------------------------------------------|
---------------------------------------------------------------------------|

 Dm	Am	Am	G	Dm	Am	C	G
-1------0-------0-------3-------1-------0-------0-------3--|
-3------1-------1-------3-------3-------1-------1-------3--|
-2------2-------2-------0-------2-------2-------0-------0--|	x1
-0------2-------2-------0-------0-------2-------2-------0--|
--------0-------0-------2---------------0-------3-------2--|
------------------------3-------------------------------3--|

 F	Dm	Bb	F   E	F	Dm	Bb	F
-1------1-------1-------1---0---1-------1-------1-------1--|
-1------3-------3-------1---0---1-------3-------3-------1--|
-2------2-------3-------2---1---2-------2-------3-------2--|	x1
-3------0-------3-------3---2---3-------0-------3-------3--|
-3--------------1-------3---2---3---------------1-------3--|
-1----------------------1---0---1-----------------------1--|

-------------------------------------------------------------------------------|
-------------------------------------------------------------------------------|
-0---0--0h2--2-2-0h2p0---0-----0---0----0h2p0---0-----0---0----0h2p0---0-------|	x1
-0-3-0-----------------3---3s5---5----5-------3---3s5---5----5-------3---0--0--|
-------------------------------------------------------------------------------|
-------------------------------------------------------------------------------|

------------------------------------------------------------------------------|
--------------3---------------------------------------------------------------|
-------0h2--2---0h2p0---0-----0---0----0h2p0---0-----0---0----0h2p0---0-------|	x1
-0-3h5----------------3---3s5---5----5-------3---3s5---5----5-------3---0--0--|
------------------------------------------------------------------------------|
------------------------------------------------------------------------------|

 Dm	 Am	 C	 G
-1-------0-------0-------3--|
-3-------1-------1-------3--|
-2-------2-------0-------4--|	x3
-0-------2-------2-------5--|
---------0-------3-------5--|
-------------------------3--|

 Dm	 Am	 C	 G
-1-------0-------0-------3--x-x--x-x--|
-3-------1-------1-------3--x-x--x-x--|
-2-------2-------0-------4--x-x--x-x--|	x1
-0-------2-------2-------5--x-x--x-x--|
---------0-------3-------5--x-x--x-x--|
-------------------------3--x-x--x-x--|

 F	Dm	Bb	F   E	F	Dm	Bb	F
-1------1-------1-------1---0---1-------1-------1-------1--|
-1------3-------3-------1---0---1-------3-------3-------1--|
-2------2-------3-------2---1---2-------2-------3-------2--|	x1
-3------0-------3-------3---2---3-------0-------3-------3--|
-3--------------1-------3---2---3---------------1-------3--|
-1----------------------1---0---1-----------------------1--|
[ Tab from: http://www.guitartabs.cc/tabs/s/state_radio/calvados_chopper_tab.html ]
----------------------------------------------------------------------------|
----------------------------------------------------------------------------|
--------0h2--2-2-0h2p0---0-----0---0----0h2p0---0-----0---0----0h2p0---0----|	x1
-0-3h5-----------------3---3s5---5----5-------3---3s5---5----5-------3---0--|
----------------------------------------------------------------------------|
----------------------------------------------------------------------------|

--------------------------------------------------------------------------|
-----------3--------------------------------------------------------------|
-------0h2---2-0h2p0---0-----0---0----0h2p0---0-----0---0----0h2p0---0----|	x1
-0-3h5---------------3---3s5---5----5-------3---3s5---5----5-------3---0--|
--------------------------------------------------------------------------|
--------------------------------------------------------------------------|

-------------------------------------------------------|
-------------------------------------------------------|
-------------------------------------------------------|	x1
-3--0---3-5-0--3-2-0----------3--0---3-5-2-------------|
----------------------3-3s5-----------------3-2--3-3s5-|
-------------------------------------------------------|

-----------------------------------------------------------------------------------------------|
-----------------------------------------------------------------------------------------------|
-----------------------------------------------------------------------------------------------|
-3--3-3-3-3-3-3-3-3-3-3-3-3-3-3-3-3-3-3-3-3-3-3-3-3-3-3-3-3-3-3-3-3-3-3-3-3-3-3-3-3-3-3-3-3-3--|
-----------------------------------------------------------------------------------------------|
-----------------------------------------------------------------------------------------------|

----------------------------------------------------------------------------------------x-x--x--x-x-|
----------------------------------------------------------------------------------------x-x--x--x-x-|
----------------------------------------------------------------------------------------x-x--x--x-x-|
-3-3-0-3p0-2--2-2-3-2-0-0-3-0--0-0-0--0-0-0-0-3-3-5-3--0-0-0-3-3-5-3s2--2-2-2--0-0-0-0--x-x--x--x-x-|
----------------------------------------------------------------------------------------x-x--x--x-x-|
----------------------------------------------------------------------------------------x-x--x--x-x-|

(LEAD CHORDS)
 F	Dm	Bb	F   E	F	Dm	Bb	F
-1------1-------1-------1---0---1-------1-------1-------1--|
-1------3-------3-------1---0---1-------3-------3-------1--|
-2------2-------3-------2---1---2-------2-------3-------2--|	x1
-3------0-------3-------3---2---3-------0-------3-------3--|
-3--------------1-------3---2---3---------------1-------3--|
-1----------------------1---0---1-----------------------1--|

LEAD:
--------------------------------------------------------------------------------------------------------------------------|
--------------------6------------------------------------------------------------------5s6--------------------------------|
-------5------5-5-7---7-5-5h7-------------------------------------5--5h7-7-7-------5h7-----7-5-5h7-7-7--------------------|
-5-5h7----5h7-----------------5-5h7-7-7-7-7-7-7-7-7-7-7--5h7--5h7------------5-5h7---------------------5h7-7-7-7-7-7-7-7--|
--------------------------------------------------------------------------------------------------------------------------|
--------------------------------------------------------------------------------------------------------------------------|

 F	Dm	Bb	F   E	F	Dm	Bb	F   E
xxxxxxxxxxxxxxxxxxxxxxxxxxxxxxxxxxxxxxxxxxxxxxxxxxxxxxxxxxxxxxx
-1------5-------1-------1---0---1-------5-------1-------1---0--|
-1------6-------3-------1---0---1-------6-------3-------1---0--|
-2------7-------3-------2---1---2-------7-------3-------2---1--|	x2
-3------7-------3-------3---2---3-------7-------3-------3---2--|
-3------5-------1-------3---2---3-------5-------1-------3---2--|
-1----------------------1---0---1-----------------------1---0--|

 F	Dm	Bb	F   E
-1------1-------1-------1---0--|
-1------3-------3-------1---0--|
-2------2-------3-------2---1--|	x3
-3------0-------3-------3---2--|
-3--------------1-------3---2--|
-1----------------------1---0--|

**BASS OUTRO**
Comments