State Radio - Black Cab Motorcade Live Chords & Tabs

 

Black Cab Motorcade Live Chords & Tabs

State Radio Chords & Tabs

Version: 1 Type: Tab 0 ratings
1 star 2 stars 3 stars 4 stars 5 stars
comments

Black Cab Motorcade Live Tab

   
State Radio
Unreleased Live (02/27/04)
Black Cab Motorcade
Tabbed by Owen Sakovics
Tuning: Eb Ab Db Gb Bb Eb

 A	 A	 A   G	 A	 A       A   G    E
-5-------5-------5---3---5-------5-------5---3----0--
-5-------5-------5---3---5-------5-------5---3----0--
-6-------6-------6---4---6-------6-------6---4----1--	x1
-7-------7-------7---5---7-------7-------7---5----2--
-7--7-7--7--7-7--7---5---7--7-7--7--7-7--7---5----2--
-5--0-0--5--0-0--5---3---5--0-0--5--0-0--5---3----0--

-5-------5-------5---3---5-------5-------5---3----0-----------
-5-------5-------5---3---5-------5-------5---3----0-----------
-6-------6-------6---4---6-------6-------6---4----1-----------	x1
-7-------7-------7---5---7-------7-------7---5----2-----------
-7--7-7--7--7-7--7---5---7--7-7--7--7-7--7---5----2--2---3-2--
-5--0-0--5--0-0--5---3---5--0-0--5--0-0--5---3----0----3------

 C	Am	D	G
-3------5-------5-------3--
-5------5-------7-------3--
-5------5-------7-------4--	x4
-5------7-------7-------5--
-3------7-------5-------5--
--------5---------------3--

 C	Em	G	C	Dm	G
-3------0-------3-------3-------5-------3-------------
-5------0-------3-------5-------7-------3-------------
-5------0-------4-------5-------7-------4-------------	x1
-5------2-------5-------5-------7-------5-------------
-3------2-------5-------3-------5-------5----2---3-2--
--------0-------4-----------------------3--3---3------
	
 C	Am	D	G	C	Am	D	G
-3------5-------5-------3-------3-------5-------5-------3--
-5------5-------7-------3-------5-------5-------7-------3--
-5------5-------7-------4-------5-------5-------7-------4--	x1
-5------7-------7-------5-------5-------7-------7-------5--
-3------7-------5-------5-------3-------7-------5-------5--
--------5---------------3---------------5---------------3--

 C	Am	D	G	C	Am	Em
-3------5-------5-------3-------3-------5-------7--
-5------5-------7-------3-------5-------5-------8--
-5------5-------7-------4-------5-------5-------9--	x1
-5------7-------7-------5-------5-------7-------9--
-3------7-------5-------5-------3-------7-------7--
--------5---------------3---------------5----------
[ Tab from: http://www.guitartabs.cc/tabs/s/state_radio/black_cab_motorcade_live_tab.html ]
 Am	C	G	D
-5------3-------3-------5--
-5------5-------3-------7--
-5------5-------4-------7--	x4
-7------5-------5-------7--
-7------3-------5-------5--
-5--------------3----------

 A	D	B	C   D	
-5------5-------2-------3---5--
-5------7-------4-------5---7--
-6------7-------4-------5---7--	x4
-7------7-------4-------5---7--
-7------5-------2-------3---7--
-5-----------------------------

 A	 A	 A   G	 A	 A       A   G    E
-5-------5-------5---3---5-------5-------5---3----0--
-5-------5-------5---3---5-------5-------5---3----0--
-6-------6-------6---4---6-------6-------6---4----1--	x1
-7-------7-------7---5---7-------7-------7---5----2--
-7--7-7--7--7-7--7---5---7--7-7--7--7-7--7---5----2--
-5--0-0--5--0-0--5---3---5--0-0--5--0-0--5---3----0--

 A       A       A   G   A       A       A   G    E
-5-------5-------5---3---5-------5-------5---3----0-----------
-5-------5-------5---3---5-------5-------5---3----0-----------
-6-------6-------6---4---6-------6-------6---4----1-----------	x1
-7-------7-------7---5---7-------7-------7---5----2-----------
-7--7-7--7--7-7--7---5---7--7-7--7--7-7--7---5----2--2---3-2--
-5--0-0--5--0-0--5---3---5--0-0--5--0-0--5---3----0----3------

 C	Am	D	G
-3------5-------5-------3--
-5------5-------7-------3--
-5------5-------7-------4--	x4
-5------7-------7-------5--
-3------7-------5-------5--
--------5---------------3--

 C	Em	G	C	Dm	G
-3------0-------3-------3-------5-------3-------------
-5------0-------3-------5-------7-------3-------------
-5------0-------4-------5-------7-------4-------------	x1
-5------2-------5-------5-------7-------5-------------
-3------2-------5-------3-------5-------5----2---3-2--
--------0-------4-----------------------3--3---3------

 C	Em	G	C	Dm	E
-3------0-------3-------3-------5-------7--
-5------0-------3-------5-------7-------9--
-5------0-------4-------5-------7-------9--	x1
-5------2-------5-------5-------7-------9--
-3------2-------5-------3-------5-------7--
--------2-------4--------------------------

 Am	C	G	D
-5------3-------3-------5--
-5------5-------3-------7--
-5------5-------4-------7--	x8
-7------5-------5-------7--
-7------3-------5-------5--
-5--------------3----------

 A	 A	 A   G	 
-5-------5-------5---3--
-5-------5-------5---3--	
-6-------6-------6---4--	x1
-7-------7-------7---5--
-7--7-7--7--7-7--7---5--
-5--0-0--5--0-0--5---3--
Comments