Starting Line - Up And Go Chords & Tabs

 

Up And Go Chords & Tabs

Starting Line Chords & Tabs

Version: 1 Type: Tab 0 ratings
1 star 2 stars 3 stars 4 stars 5 stars
comments

Up And Go Tab

Artist:Starting line
Title:Up And Go (intro)
Album:Say It Like You Mean It

 .=palm mute
 x=pickslide
My tab sounds pretty accurate. Right now I don't have the time to tab
the whole song. When I have time I'll tab the whole song.

Gtr.1
e----------------------------------------------------------
B----------------------------------------------------------
G----------------------------------------------------------
D-22----------------22-------------------------------------
A-22----------------22------------------xxxxxxxxxxxxxxxx---  
E-00----------------00------------------xxxxxxxxxxxxxxxx---
  ..(00:00)         ..(00:06)           (00:10)
  pm                pm                   pickslide
[ Tab from: http://www.guitartabs.cc/tabs/s/starting_line/up_and_go_tab.html ]
e------------------------------------------------------------------------------
B-55555555---------------------------------------------------------------------
G-44444444-4444-6666-----------22222222-999/11/13-4444-6666-----------22222222-
D-22222222-4444-6666-4444-2222-22222222-xxx-x--x--4444-6666-4444-2222-22222222-
A----------2222-4444-4444-2222-00000000-777/9/-11-2222-4444-4444-2222-00000000-
E--------------------2222-0000------------------------------2222-0000----------
******************************************************************************

Gtr.2
e-----0-----0-----0-----0-----0-----0-----0-----0--
B---0-----0-----0-----0-----0-----0-----0-----0----
G-2-----4-----2-----1-----2-----4-----2-----1------
D--------------------------------------------------
A--------------------------------------------------
E--------------------------------------------------

e-----0-----0-----0-----0----0-----0-----0-----0--
B---0-----0-----0-----0----0-----0-----0----0-----
G-2-----4-----2-----1----2-----1-----2----1-------
D-------------------------------------------------
A-------------------------------------------------
E-------------------------------------------------

e----------------------------------------------------------------
B-0---0---0---0---0---0---0---0----0---0---0---0---0---0---0---0-
G-2---4---2---1---2---4---2---1----2---4---2---1---2---1---2---1-
D----------------------------------------------------------------
A----------------------------------------------------------------
E----------------------------------------------------------------
Comments