Starting Line - Saddest Girl Story Chords & Tabs

 

Saddest Girl Story Chords & Tabs

Starting Line Chords & Tabs

Version: 1 Type: Tab 0 ratings
1 star 2 stars 3 stars 4 stars 5 stars
comments

Saddest Girl Story Tab

   
------------------------------------------------------------
                 SADDEST GIRL STORY - The Starting Line
------------------------------------------------------------

~ - let ring out
h - hammer on
p - pull off
... - palm mute
/ \ - slide
7x
x   - mute after strumming
5x
x
x - scratching
x

GUITAR 1'S PARTS:
-----------------
Intro:
e|---------------------------------------------------------------------------|
B|---------------------------------------------------------------------------|
G|7~-----------------------7~----------------------12-11-7x------------------|
D|7~-----------------------7~-----------------------x--x-x-------------------|
A|5~-----------------------5~----------------------10--9-5x------------------|
E|---------------------------------------------------------------------------|

Intro Cont'd:  (2x)
e|---------------------------------------------------------------------------|
B|---------------------------------------------------------------------------|
G|7-7-7-7-7-7-7-7-----------------4-4-4-4-4-4-4/7----------------------------|
D|7-7-7-7-7-7-7-7-5-5-5-5-5-5-5-5-4-4-4-4-4-4-4/7-5-5-5-5-5-5-5-5------------|
A|5-5-5-5-5-5-5-5-5-5-5-5-5-5-5-5-2-2-2-2-2-2-2/5-5-5-5-5-5-5-5-5------------|
E|----------------3-3-3-3-3-3-3-3-----------------3-3-3-3-3-3-3-3------------|

Verse:  (2x)
e|---------------------------------------------------------------------------|
B|---------------------------------------------------------------------------|
G|7~------------4~-----------------------------------------------------------|
D|7~-----7~-----4~-----5~----------------------------------------------------|
A|5~-----7~-----2~-----5~--10-9-7--------------------------------------------|
E|-------5~------------3~----------------------------------------------------|

Pre Chorus:
e|---------------------------------------------------------------------------|
B|---------------------------------------------------------------------------|
G|--------------------4-4-4-4-4-4-4-4-----------------7-7-7------------------|
d|2-x-x-4-x-x-5-x-7-x-4-4-4-4-4-4-4-4-5-5-5-5-5-5-5-5-7-7-7-7-7-7-5-5-5-4-4-4|
A|2-x-x-4-x-x-5-x-7-x-2-2-2-2-2-2-2-2-5-5-5-5-5-5-5-5-5-5-5-7-7-7-5-5-5-4-4-4|
E|0-x-x-2-x-x-3-x-5-x-----------------3-3-3-3-3-3-3-3-------5-5-5-3-3-3-2-2-2|
                                                        ...   ...   ...   ...

Pre Chorus:
e|---------------------------------------------------------------------------|
B|---------------------------------------------------------------------------|
G|7-7-7-7-7-7-7-7-----------------4-4-4-4-4-4-4-4----------------------------|
D|7-7-7-7-7-7-7-7-5-5-5-5-5-5-5-5-4-4-4-4-4-4-4-4-5-5-5-5-5-5-5-5-7~---------|
A|5-5-5-5-5-5-5-5-5-5-5-5-5-5-5-5-2-2-2-2-2-2-2-2-5-5-5-5-5-5-5-5-7~---------|
E|----------------3-3-3-3-3-3-3-3-----------------3-3-3-3-3-3-3-3-5~---------|

Chorus:  (2x)
e|---------------------------------------------------------------------------|
B|---------------------------------------------------------------------------|
G|7-7-7-7-7-7-7-7------------------------------------------------------------|
D|7-7-7-7-7-7-7-7-5-5-5-5-5-5-5-5-7-7-7-7-9-9-9-9-5-5-5-5-5-5-5-5------------|
A|5-5-5-5-5-5-5-5-5-5-5-5-5-5-5-5-7-7-7-7-9-9-9-9-5-5-5-5-5-5-5-5------------|
E|----------------3-3-3-3-3-3-3-3-5-5-5-5-7-7-7-7-3-3-3-3-3-3-3-3------------|
                                                  .....   .....

Bridge:  (1x)                     (3x)
e|-------------------------------|---------------------------------|---------|
B|-------------------------------|-10-----10-----10-----10---8---8-|---8~----|
G|7~--7-2~---2/6-7---7/9--7p6-7~-|----7-7----7-7----7-7----7---7---|---------|
D|7~-----------------------------|---------------------------------|---------|
A|5~-----------------------------|---------------------------------|---------|
E|-------------------------------|---------------------------------|---------|

Repeat Verse:  (Do this at end)
e|---------------------------------------------------------------------------|
B|---------------------------------------------------------------------------|
G|12-12-12-12-12-12-12-12-12-12-12-12-12-12x---------------------------------|
D|-x--x--x--x--x--x--x--x--x--x--x--x--x--x----------------------------------|
A|10-10-10-10-10-10-10-10-10-10-10-10-10-10x---------------------------------|
E|---------------------------------------------------------------------------|

Repeat Chorus

2nd Bridge:  (7x)                    (Play on 8th time)
e|----|-----------------------------|----------------------------------------|
B|----|-----------------------------|----------------------------------------|
G|7~--|---7-7--7-7--7-7--7-7--7-7-7-|-12-11-7x-------------------------------|
D|7~--|---x-x--x-x--x-x--x-x--x-x-x-|--x--x-x--------------------------------|
A|5~--|---5-5--5-5--5-5--5-5--5-5-5-|-10--9-5x-------------------------------|
E|----|-----------------------------|----------------------------------------|

Repeat Chorus

Ending:
e|---------------------------------------------------------------------------|
B|---------------------------------------------------------------------------|
G|12-11-7x-----x-x--x-7~-----------------------------------------------------|
D|-x--x-x------x-x--x-7~-----------------------------------------------------|
A|10--9-5x-----x-x--x-5~-----------------------------------------------------|
E|---------------------------------------------------------------------------|

GUITAR 2'S PARTS:
-----------------
Intro:  (palm mute this note for a while, you figure out strumming)
e|------|
B|------|
G|------|
D|--0---|
A|------|
E|------|
    .

Intro Cont'd:  (Listen for this part)
e|----------|
B|----------|
G|-----7----|
D|-0-0------|
A|----------|
E|----------|
[ Tab from: http://www.guitartabs.cc/tabs/s/starting_line/saddest_girl_story_tab.html ]
Intro Cont'd:                         (4x)           
e|---------|-------------------------|---------------------------------------|
B|---------|-----10---10-----10---10-|-----10---10-----8---10----------------|
G|12-11-7x-|-7-7----7----7-7----7----|-7-7----7----7-7---7-------------------|
D|-x--x-x--|-------------------------|---------------------------------------|
A|10--9-5x-|-------------------------|---------------------------------------|
E|---------|-------------------------|---------------------------------------|

Intro Cont'd:  (4x)
e|---------------------------------------------------------------------------|
B|10-10-10--10-10-10-10-10--10-10-10-8---------------------------------------|
G|-7--7--7---7--7--7--7--7---7--7--7-7---------------------------------------|
D|---------------------------------------------------------------------------|
A|---------------------------------------------------------------------------|
E|---------------------------------------------------------------------------|

Verse:  (2x)
e|---------------------------------------------------------------------------|
B|---------------------------------------------------------------------------|
G|7-7--7-7--7-7--7-7--7-7-7------7-7--7-7--7-7--7-7--7-7-7-------------------|
D|x-x--x-x--x-x--x-x--x-x-x-7~---x-x--x-x--x-x--x-x--x-x-x-5~----------------|
A|5-5--5-5--5-5--5-5--5-5-5-7~---5-5--5-5--5-5--5-5--5-5-5-5~-10-9-7---------|
E|--------------------------5~-----------------------------3~----------------|

Pre Chorus:
e|---------------------------------------------------------------------------|
B|--------------------10-10-10-7-8-7-10-10-10-7-8-7--------------------------|
G|---------------------7--7--7-7-7-7--7--7--7-7-7-7--------------------------|
D|2-x-x-4-x-x-5-x-7-x-------------------------------7-----5-----4-----2------|
A|2-x-x-4-x-x-5-x-7-x---------------------------------5-5---5-5---5-5---5-5--|
E|0-x-x-2-x-x-3-x-5-x--------------------------------------------------------|
                                                      ...   ...   ...   ...

Pre Chorus Cont'd:
e|---------------------------------------------------------------------------|
B|10-10-10-7-8-7-10-10-10-7-8-7-10-10-10-7-8-7-10-10-10-7-8-7----------------|
G|-7--7--7-7-7-7--7--7--7-7-7-7--7--7--7-7-7-7--7--7--7-7-7-7----------------|
D|---------------------------------------------------------------------------|
A|---------------------------------------------------------------------------|
E|---------------------------------------------------------------------------|

Pre Chorus Cont'd:
e|---------------------------------------------------------------------------|
B|10-----10-----10-----10-----10---10--10-----10-----10-10-10-10-10-10x------|
G|---7-7----7-7----7-7----7-7----7--------7-7----7-7--7--7--7--7--7--7x------|
D|---------------------------------------------------------------------------|
A|---------------------------------------------------------------------------|
E|---------------------------------------------------------------------------|
     ...    ...    ...    ...    .        ...    ...

Chorus:  (Repeat lots)
e|---------------------------------------------------------------------------|
B|10---10---10---7h8---------------------------------------------------------|
G|---7----7----7-----7-------------------------------------------------------|
D|---------------------------------------------------------------------------|
A|---------------------------------------------------------------------------|
E|---------------------------------------------------------------------------|

Bridge:  (Play same as guitar 1)

Verse:  (Play what guitar 1 plays for 1st verse)

Repeat Chorus

2nd Bridge:
e|---------------------------------------------------------------------------|
B|---------------------------------------------------------------------------|
G|----------------------------------------------------7----------------------|
D|---------------------------------------------------------------------------|
A|5-5--5-5--5-5--5-5--5-5---5-5-5--5-5--5-5--5-5--5-5------------------------|
E|---------------------------------------------------------------------------|
  ...................................................

2nd Bridge Cont'd:
e|---------------------------------------------------------------------------|
B|---------------------------------------------------------------------------|
G|---------------------------------------------------------------------------|
D|-------0--------0-----0--------0-------0-----0--------0-------0-----0------|
A|5-5--5----5-5-5---5-5--------------------------2-2--2---2-2-2---2-2--------|
E|------------------------5-5--5---5-5-5---5-5--------------------------3-3--|
  ......    .....   ...   ......   .....   ...   ......   .....   ...   ...

2nd Bridge Cont'd:   (You figure out strumming)
e|------------------|-------------------------|------------------------------|
B|------------------|-------------------------|-----10---10---7h8-10---------|
G|------------------|--11--12--14----12-11-7x-|-7-7----7----7----------------|
D|--0-------0-----0-|---x---x---x-----x--x-x--|------------------------------|
A|------------------|---9--10--12----10--9-5x-|------------------------------|
E|3---3-3-3---3-3---|-------------------------|------------------------------|
  .   .....   ...

Repeat Chorus

Ending:
e|--------------------------|
B|--------------------------|
G|12-11-7x-----x-x--x-7~----|
D|-x--x-x------x-x--x-x~----|
A|10--9-5x-----x-x--x-5~----|
E|--------------------------|

Saddest Girl Song

So it's safe to say that we've been here before;
Heart torn out, down for the count and still come back for more.
This lesson is learned too well.
Though, only unlearned by the time your wounds have healed.
Have you had enough?
I guess not because your lips are stuck to his.
It's Time to say enough is enough, you would be so better off.
You love him but tough because it's not coming back from him.
You can't win.
Stop expecting change, he's just a lost cause that you're waiting on.
Take a look around, you could have anyone.
So leave undeserving him.
It only hurts at first.
But then you will find someone to give you everything you want.
Try not to go running back to him.
So it goes unsaid that we've been here before.
Lonely nights and endless fights and sleeping on the floor.
And he's sorry, so the story goes.
It's read and replayed and ends the same way. 
Comments