Starting Line - Saddest Girl Story Chords & Tabs

 

Saddest Girl Story Chords & Tabs

Starting Line Chords & Tabs

Version: 1 Type: Bass Tab 0 ratings
1 star 2 stars 3 stars 4 stars 5 stars
comments

Saddest Girl Story Bass Tab

   
Sorry people no room to tab the rhythm for the intro. if you like this tab dont
copy and paste cus thats really stupid and annoying. if you do, be nice and give
colin o. credit. anyways im pretty sure this is a good tab. this is really cool
to play with two other guitars.

Intro 00:00
G-----------------------------------------------------------------------------
D-----------------------------------------------------------------------11h13-  
A-66-6666-6666-88-8888-888-1010-10101010-10101010-1111-11111111-11111111------
E-----------------------------------------------------------------------------

G--------------------------------------------------------
D--------------------------------------------------------
A-66-6666-6666-88-8888-888-1010-10101010-10101010-11-10-6
E--------------------------------------------------------

Pre Verse 00:20
G---------------------------------------------------------------
D-----------------------------------------------------------6666
A-66-666-666-66-------------------33-333-333-3------------------
E---------------6-44-444-444-444-4------------3-44-444-444-4----

G--------------------------------------------------------------
D--------------------------------------------------------------
A-66-666-666-66-------------------33-333-333-3-----------------
E---------------6-44-444-444-444-4------------3-44-444-444-444-

Verse 00:38
G-------------------------------------------
D-------------------------------------------
A-6-666-66-66-6666--------3-333-33-33-3333--
E-----------------6-----------------------4-

G-------------------------------------------
D-------------------------------------------
A-6-666-66-66-6666--------3-333-33-33-3333--
E-----------------6-----------------------4-

Pre-Chorus 00:56
G---------------------------
D---------------------------
A-------3333-6666-----------
E-1-3-4-----------4444-6666-

G---------------------------
D---------------------------
A-------3333-6666-----------
E-1-3-4-----------4444-6666-

Chorus 01:19
G------------------------------------------
D------------------------------------------
A-66666666---------------------------------
E----------44444444-6666-8888-66666---66666

G------------------------------------------
D------------------------------------------
A-66666666---------------------------------
E----------44444444-6666-8888-66666---66666
[ Tab from: http://www.guitartabs.cc/tabs/s/starting_line/saddest_girl_story_btab.html ]
Bridge 1 01:37
G------------------------------------
D------------------------------------
A-66666666----------33333333---------                   
E----------66666666----------44444444

G----------------------------------------------------- *You can kind of play 
D--8-8-8-8-8------------------------------------------  around with each set of 
A-6-6-6-6-6-6-8-8-8-8-8---10-10-10-10-10---6-6-6-6-6-6  notes here. there's no
E------------6-6-6-6-6-6-8--8--8--8--8--8-4-4-4-4-4-4-  definite order.
                                                     
Verse 01:55
G-------------------------------------------
D-------------------------------------------
A-6-666-66-66-6666--------3-333-33-33-3333--
E-----------------6-----------------------4-

G----------------------------------------------------------------------
D---------------------------------------------------------6666666666666
A-6-666-66-66-6666--------3-333-33-33-3333-----------------------------
E-----------------6-----------------------4444444444444444-------------

Chorus 02:15
G------------------------------------------
D------------------------------------------
A-66666666---------------------------------
E----------44444444-6666-8888-66666---66666

G------------------------------------------
D------------------------------------------
A-66666666---------------------------------
E----------44444444-6666-8888-66666---66666

Bridge 2 (Intro) 02:37
G----------------------------------------------------------------------------
D-----------------------------------------------------------------------11h13
A-66-6666-6666-88-888-8888-1010-10101010-10101010-1111-11111111-11111111-----
E----------------------------------------------------------------------------

G--------------------------------------------------------
D--------------------------------------------------------
A-66-6666-6666-88-8888-888-1010-10101010-10101010-11-10-6
E--------------------------------------------------------

Chorus 02:57
G------------------------------------------
D------------------------------------------
A-66666666---------------------------------
E----------44444444-6666-8888-66666---66666

G---------------------------------------------------------
D---------------------------------------------------------
A-66666666----------------------------------11-10-6---6---
E----------44444444-6666-8888-66666---66666---------------

No order cus i wrote all the parts that get repeated twice
email me at because419@aol.com
Comments