Starting Line - Piano Chords & Tabs

 

Piano Chords & Tabs

Starting Line Chords & Tabs

Version: 1 Type: Tab 0 ratings
1 star 2 stars 3 stars 4 stars 5 stars
comments

Piano Tab

Starting Line - Piano
Tabbed By: Robbie
EMail: robsterthelobster04@yahoo.com


this is a cool song, but i dont play the piano, so i decided to tab
 it for guitar. it should be mostly all right, and if it's not then 
it's not my fault... just because it isnt, so i hope you can learn 
from this one. use standard tuning, none of that fancy mumbo jumbo

this is the little bit that is playing through the whole song
e------------------------------------------------------------------
-------8---7---8-----------------------------------------------------
---------7---7---7----------------------------------------------------
-------------------------------------------------------------------
-------------------------------------------------------------------
E-------------------------------------------------------------------
and then just keep repeating and some little variations...

this is in the beginning and also most of the rest of the song...

"her life was more than mine...."
e---------------------------------------------
----------------------------------------------
-------7----9---5-----------------------------
--5----7----9---5-----------------------------
--5----5----7---3-----------------------------
E-3-------------------------------------------

this is the first solo, not really sure of the end, but u can get it
e---3-h5--3-5-h7-7-7-5-3-3--3------------------------------------3--
------------------------------3-h5-3-----------------------------0--
-------------------------------------5-4-0-0-----0-2-2-h4-2-0----0--
----------------------------------------------0------------------0--
-----------------------------------------------------------------x--
E----------------------------------------------------------------3--
[ Tab from: http://www.guitartabs.cc/tabs/s/starting_line/piano_tab.html ]
this is the part before the second solo...
"and then my eyes..."
e------------------------------------------------------------------
-------------------------------------------------------------------
---2---------------------------------------------------------------
---2--5--3--5------------------------------------------------------
---0--5--3--5------------------------------------------------------
E-----3--1--3------------------------------------------------------

here is the second solo...
e--8--3-h5--7-h8-7-------------------------------------------------
-------------------8-----------------------------------------------
---------------------7--4--4-4h5-4-0-0h2-2h4--4-5-5h7--4h5p4-0-0---
-------------------------------------------------------------------
-------------------------------------------------------------------
E------------------------------------------------------------------

second solo cont...
e------------------------------------------------------------------
--------------------------------------------12p10--8---8h10-10h12--
---0-4-7-5-4-5-5--0-4-7-5-4-5-5-4-0-0h2-2h4----------7-------------
-------------------------------------------------------------------
-------------------------------------------------------------------
E------------------------------------------------------------------

second solo cont...

e---7-8--8h10--7-8-8-7---3~~--3-------------------------------------
------------------------------0-------------------------------------
------------------------------0-------------------------------------
------------------------------0-------------------------------------
------------------------------x-------------------------------------
E-----------------------------3-------------------------------------

it's really hard to make it in time, so just listen to the song and you 
should get it. it's pretty easy and you will need at least 2 people
to play it. GOOD LUCK any questions or comments e-mail me at
robsterthelobster04@yahoo.com
Comments