Starting Line - Make Yourself At Home Chords & Tabs

 

Make Yourself At Home Chords & Tabs

Starting Line Chords & Tabs

Version: 1 Type: Tab 0 ratings
1 star 2 stars 3 stars 4 stars 5 stars
comments

Make Yourself At Home Tab

Song:Make Yourself at Home
Artist:The Starting Line
Tabbed by:Jake      e-mail:ratter3131@aol.com

This song is off the New Startine Line CD thats coming out soon.

Note:Lyrics do not match tab also This has a lot of synthetic sounds so alone it
wont sound exactly the same

~=Let ring(this apllies to all the verse riffs)

Verse Riff x4   ~                  ~                   ~ 
e|----------------------------------------------------------------------------|
h|----------------------------------------------------------------------------|
g|-----------------------------------------------------------44444444---------|
d|-------2------------------2-------------------2------------44444444---------|
a|--4--------4--4------0---------4--4------4--------4--0-----22222222---------|
E|----------------------------------------------------------------------------|
	With the Lyrics


Chorus
e|------------------------------------------------------------------|
h|------------------------------------------------------------------|
g|---44---44444444--------------------------------------------------|
d|---44---44444444-[ Tab from: http://www.guitartabs.cc/tabs/s/starting_line/make_yourself_at_home_tab.html ]
(above cont.)
e|--------------------------------------------------------------------------------|
h|--------------------------------------------------------------------------------|
g|------------------------------------------------------------------44444444------|
d|--------2-------------------2--------------------2----------------44444444------|
a|---4--------4--4-------0---------4--4-------4---------4--0--------22222222------|
E|--------------------------------------------------------------------------------|
    "Thats good advice ill take it now ill start to Use it you know." 
Chorus
e|---------------------------------------------------------|
h|---------------------------------------------------------|
g|--44---44444444------------------------------------------|
d|--44---44444444->Do this for the below lyrics------------|Listen carfully
a|--22---22222222------------------------------------------|to figure the struming
E|--00---00000000------------------------------------------|

"Send just long messages from me to you to let you know im okay ill let you know
im not makeing you frown so dont wait up ill be home soon im out of town for now
you're wut makes it home that ill come back to"


Verse Riff x 4

e|----------------------------------------------------------------------------|
h|----------------------------------------------------------------------------|
g|--444444----------------------------------------------------------44444444--|
d|--444444-------2-----------------2--------------------2-----------44444444--|
a|--222222---4-------4--4------0-------4--4------4---------4--0-----22222222--|
E|----------------------------------------------------------------------------|
   "Make it a note to take your time they begged take baby

e|----------------------------------------------------------------------------|
h|----------------------------------------------------------------------------|
g|------44----------------------------------------------------------44444444--|
d|------44-------2-----------------2--------------------2-----------44444444--|
a|------22---4-------4--4------0-------4--4------4---------4--0-----22222222--|
E|----------------------------------------------------------------------------|
(above cont.)  steps to everwhere and come home in one piec to us"

e|----------------------------------------------------------------------------|
h|----------------------------------------------------------------------------|
g|------------------------------------------------------------------44444444--|
d|---------------2-----------------2--------------------2-----------44444444--|
a|-----------4-------4--4------0-------4--4------4---------4--0-----22222222--|
E|----------------------------------------------------------------------------|
    "you Know its so good to be home.

Then another verse line, another chorus line and then the bridge ending which is this.


e|----------------------------------|     e|------------------------------| < x 8
h|----------------------------------|     h|------------------------------|
g|----4444--------------------------|     g|------444444---44-------------|
d|----4444-
							
													
Comments