Starting Line - Leaving Chords & Tabs

 

Leaving Chords & Tabs

Starting Line Chords & Tabs

Version: 2 Type: Tab 0 ratings
1 star 2 stars 3 stars 4 stars 5 stars
comments

Leaving Tab

------------------------------------------------------------
			      LEAVING - The Starting Line
------------------------------------------------------------

By:Calum Neil (calumneil@hotmail.com)
   
e|-----------------------------------------------|
B|-----------------------------------------------|
G|-4-4-4-----------------------------------------|
D|-4-4-4---2-2-2---4-4-4---6-6-6-----------2-2---|
A|-2-2-2---2-2-2---4-4-4---6-6-6-----------2-2---|
E|---------0-0-0---2-2-2---4-4-4-----------0-0---|
    play 4x       then   end   with  E minor       
   
   verse
e|-------------------------------------------------------|
B|-------------------------------------------------------|
G|-------------------------------------------------------|
D|----------------2------------------------------------2-|
A|-----------2-2--2-------------------------------2-2--2-|
E|-2-2--4-4-------0--------4-4-4--2-2-2--2-2--4-4------0-|
   p.m. . .  . .       . .  . .  . .        . .    . .    . 

e|------------------------------------------------|
B|------------------------------------------------|
G|------------------------------------------------|
D|-----------------2------------------------------|
A|------------2-2--2------------------------------|
E|--2-2--4-4-------0------------------------------|
  p.m..  . .  . .     slide /  and repeat intro

  verse 2 guitar 2                                 
e|-7-7-7-7-7-7--6-9--7-7-7-7-7-7--6/7--9/7--7-7-7-7-7-7-|
B|------------------------------------------------------|
G|-4-4-4-4-4-4--3-6--4-4-4-4-4-4--3/4--6/4--4-4-4-4-4-4-|
D|------------------------------------------------------|
A|------------------------------------------------------|
E|------------------------------------------------------|

  pre chorus  guitar one
e|------------------------------------------------------|
B|------------------------------------------------------|
G|------------------------------------------------------|
D|----------------------------------2-------------------|
A|-6-6-6-6-6-6--2-2-2--4-4-4--------2-------------------|
E|-4-4-4-4-4-4--0-0-0--2-2-2--------0-------------------|
   3x    then   on   the   fourth measure end with E minor

   pre chorus guitar 2
e|-----------------------------------------------
B|--------7-----------------------7-----7-5-4-2-4
G|--3-4-3---4-3---4-3---6-3--3-4-3---4-3---------
D|--------------4-----4--------------------------
A|-----------------------------------------------
E|-----------------------------------------------
[ Tab from: http://www.guitartabs.cc/tabs/s/starting_line/leaving_tab_ver_2.html ]
e|---------------------------|
B|----------7----------------|
G|-4--3-4-3--4-3---4-3---6-3-|
D|-------------4-----4-------|
A|---------------------------|
E|---------------------------|

               *let ring
e|------------------------------------------------------|
B|-------7-----7---7-7----------------------------------|
G|-3-4-3---4-3------------------------------------------|
D|-----------------4-4----------------------------------|
A|------------------------------------------------------|
E|------------------------------------------------------|

   chorus  guitar 1  here is just the chords
e|------------------------------------------------------|
B|------------------------------------------------------|
G|-4--6--4----------------------------------------------|
D|-4--6--4--6--4--2-------------------------------------|
A|-2--4--2--6--4--2-------------------------------------|
E|----------4--2--0-------------------------------------|

   here is that slow part
e|----------------------------------------------------|
B|----------------------------------------------------|
G|----------------------------------------------------|
D|-----4------------4------6--------4----------4--2-2-|
A|---2----2-------4------6--------2---2------4----2-2-|
E|-0--------4---2------4--------0-------4--2------0-0-|
   3x                            fourth time

e-----------------------------------------------------------
B-12-12-12-11-11-9-9-9-9-7-7-7-7-9-7-5----------------------
G-------------------------------------4-4h6-4-4-4-4-3-4-6-4-
D-----------------------------------------------------------
A-----------------------------------------------------------
E-----------------------------------------------------------


HERE IS THE LEAD PART IN THE BRIDGE:
e-----------------------------------------------------------
B-------7-------------------7----7-5-4-5-4------------------
G-4-6-4--4-----4----6--4-6-4--4------------6----------------
D----------4--6-4-6-----------------------------------------
A-----------------------------------------------------------
E-----------------------------------------------------------


Leaving

You and I cold February night, it's been half an hour.
Taking sweet time saying our goodbyes.
One minute more.
The best day of my life is all thanks to you.
Precious remembrance saved for rainy days or February.
Few scenes from my life or moments mean more to me
than our fine night.
I remember like yesterday the time of my life.
Please don't leave me without saying good bye.
As weekdays and weekdays unwind I'll be found starring back 
in time.
2/12/99 at the stroke of midnight.
Holding you tight, your body and mine,in February. 
Comments