Starting Line - Leaving Chords & Tabs

 

Leaving Chords & Tabs

Starting Line Chords & Tabs

Version: 2 Type: Bass Tab 0 ratings
1 star 2 stars 3 stars 4 stars 5 stars
comments

Leaving Bass Tab

   
Band:The Starting Line
Song:Leaving
Album:Say it like you mean it
Tunning:Standard

Intro [2x]
G|----------------------------------------------|
D|----------------------------------------------|
A|--2-2----------2-2----------2-2---------------|
E|------0-2-2-4------0-2-2-4------0-2-2-4---0-0-| 

Verse 1 
G|------------------|
D|--------4---------|
A|--2-2-2-----------|
E|----------0-------|

Intro [1x]

Verse 1 [Continued]
G|--------------------------------------------------------------|
D|---------4--------------4-------------------4-------------4---|
A|---2-2-2----------2-2-2---------------2-2-2---------2-2-2-----|
E|----------0--------------0-----44-22---------0--------------0-|

Pre Chorus 1
G|-------------------------------------------------------------------------|
D|-------------------------------------------------------------------------|
A|-------------------------------------------------------------------------|
E|-4-4-4-4-4-4-0-0-0-2-2-2-4-4-4-4-4-4-0-0-0-2-2-2-4-4-4-4-4-4-0-0-0-2-2-2-|
[ Tab from: http://www.guitartabs.cc/tabs/s/starting_line/leaving_btab_ver_2.html ]
G|----------------------|
D|----------------------|
A|---------------2-2----|
E|-0-0-0-0-0-0----------|

Chorus [2x]
G|-----------------------------------------------------------------------|
D|-----------------------------------------------------------------------|
A|--22222222-44444444----------------------------------------------------|
E|--------------------000000000000000-44444444-22222222-0000000000000000-|

G|----------------|
D|----------------|
A|----------------|
E|---4-4-4-2-2-0--|

Verse 1 [Continued][1x]

Pre Chorus 2
G|-----------------------------------------|
D|------------------------------2~---------|
A|--2~--------2--4~-----------2~-------2-2-|
E|-----2~--0------------0~-----------------|

Chorus [4x]

G|-----------------------------------------------------------------------|
D|-----------------------------------------------------------------------|
A|--22222222-44444444----------------------------------------------------|
E|--------------------000000000000000-44444444-22222222-0000000000000000-|


G|----------------|
D|----------------|
A|----------------|
E|---4-4-4-2-2-0--|
Comments