Starting Line - Leaving Chords & Tabs

 

Leaving Chords & Tabs

Starting Line Chords & Tabs

Version: 1 Type: Bass Tab 0 ratings
1 star 2 stars 3 stars 4 stars 5 stars
comments

Leaving Bass Tab

the starting line - leaving
Tabbed By: sk8er dude
EMail: salomonst1team@hotmail.com

* - let ring
/ - slide up
\ - slide down
h - hammer on
p - pull off

Intro x3                Intro p. 2 x1  
G-------------------    G----------------
D-------------------    D----------------
A-22----------------    A--22------------
E----0--4--2--------    E------0*--------

Verse
G-----------------------------------------------------------------------
D-----------------------------------------------------------------------
A--2222/7*--66-44---2222/7*-/---11-9---2222/7*-77664422---2222/7*/------
E-----------------------------------------------------------------------

Pre Chorus x3     Pre p.2 x1
G-----------------|----------------
D-----------------|----------------
A-----------------|--764---22------
E--4444--00--22---|----------------
[ Tab from: http://www.guitartabs.cc/tabs/s/starting_line/leaving_btab.html ]
Chorus
G---------------------------------------------------------------------------
D---------------------------------------------------------------2h4-4p2-----
A--22222222--44444444--77777777---------------------------------------------
E---------------------------------44444444--22222222--00000000--------------

Post Chorus
G-----------------------------------
D------------2/4\2------------------
A------------------------------7----
E-44-422-20----------44-422-2/------

Outro 
G-------------------------------------------------------------------------
D--------------------------------2h4-4h2----------------------------------
A--22222222--44444444--77777777----------------------------------------7--
E-----------------------------------------44444444--222222222--0000000/---

G-------------------------
D-------------------------
A-----------7-------------
E--44-422-2/--------------
Comments