Starting Line - Im Real Chords & Tabs

 

Im Real Chords & Tabs

Starting Line Chords & Tabs

Version: 4 Type: Tab 0 ratings
1 star 2 stars 3 stars 4 stars 5 stars
comments

Im Real Tab

   
Intro:
e----------------0--------------------------------------------|
b--------------1----------------------------------------------|
g-------------2-2---------------------------------------------|
d--------3---3--------5---5-------7-------------5--hold note--|
a----3------------3-3--3--------7--7--------5-----------------|
E-5-5--5---------------------5-5-5--5----3-3--3---------------|

Intro cont'd (4x):
e-------------------------------------------------------------|
b-------------------------------------------------------------|
g---------------------5---------------------------------------|
d--7---------3--------5-8x-----5------------------------------|
a--7-8x------3-8x-----3--------5-8x---------------------------|
E--5---------1-----------------3------------------------------|

Verse
e |----------------------------|
b |----------------------------|
g |---xx-5---------------------|
d |---xx-5--xx-3---------------|
a |---xx-3--xx-3---------------|
E | ---------xx-1--------------|

Chorus
e |----------------------------|
b |----------------------------|
g |------5---------------------|
d |------5-----3-----5-----7---|
a |------3-----3-----5-----7---|
E | ------------1-----3-----5--|
[ Tab from: http://www.guitartabs.cc/tabs/s/starting_line/im_real_tab_ver_4.html ]
Verse2
e |-------------------------------|
b |-------------------------------|
g |---xx-5-----------------5------|
d |---xx-5--xx-3----------5--3----|
a |---xx-3--xx-3----------3--3----|
E | ---------xx-1--------------1--|

Chorus
e |-----------------------------|
b |-----------------------------|
g |------5----------------------|
d |------5-----3-----5-----7----|
a |------3-----3-----5-----7----|
E | ------------1-----3-----5---|

Verse3
e |---------------------------|
b |---------------------------|
g |---5~~~~~~~~~~~------------|
d |---5~~~~~~~~~~~------------|
a |---3~~~~~~~~~~~--------2x--|
E | --------------------------|
   then...
e |-------------------------------|
b |-------------------------------|
g |---xx-5-----------------5------|
d |---xx-5--xx-3----------5--3----|
a |---xx-3--xx-3----------3--3----|
E | ---------xx-1--------------1--|

Chorus
e |-----------------------------|
b |-----------------------------|
g |------5----------------------|
d |------5-----3-----5-----7----|
a |------3-----3-----5-----7----|
E | ------------1-----3-----5---|


Outro
e----------------0--------------------------------------------|
b--------------1----------------------------------------------|
g-------------2-2---------------------------------------------|
d--------3---3--------5---5-------7-------------5--hold note--|
a----3------------3-3--3--------7--7--------5-----------------|
E-5-5--5---------------------5-5-5--5----3-3--3---------------|
Comments