Starting Line - Given The Chance Chords & Tabs


Given The Chance Chords & Tabs

Starting Line Chords & Tabs

Version: 2 Type: Tab 0 ratings
1 star 2 stars 3 stars 4 stars 5 stars

Given The Chance Tab

Song:Given The Chance
Artist:The Starting Line
Album:Say It Like You Mean It
Tabbed By:Eric M.

Sorry its just the intro but I figured it out only listening
to the song twice, and I didn't feel like tabbing the whole thing.
[ Tab from: ]
	intro... (x2)
e -------------------------------------------------------------------------|
B -------------------------------------------------------------------------|
G -11-11-11-11-11--9-9-9-9-9--8-8-8-8-8------------------8-8-8-8-8---------|
D -11-11-11-11-11--9-9-9-9-9--8-8-8-8-8--11-11-11-11-11--8-8-8-8-8---------|
A --9--9--9--9--9--7-7-7-7-7--6-6-6-6-6--11-11-11-11-11--6-6-6-6-6---------|
E ----------------------------------------9--9--9--9--9--------------------|

e -------------------------------------------------------------------------|
B -------------------------------------------------------------------------|
G ------------11-11-11-11-11-----------------------------------------------|
D -9-9-9-9-9--11-11-11-11-11--11-11-11-11-11-------------------------------|
A -9-9-9-9-9---9--9--9--9--9--11-11-11-11-11-------------------------------|
E -7-7-7-7-7-------------------9--9--9--9--9-------------------------------|

I'm pretty sure this is right. If not email me at
for any corrections you may have. The Starting Line rocks and hopefully
we'll see some more tabs of their music. Enjoy!