Starting Line - Given A Chance Chords & Tabs

 

Given A Chance Chords & Tabs

Starting Line Chords & Tabs

Version: 3 Type: Tab 0 ratings
1 star 2 stars 3 stars 4 stars 5 stars
comments

Given A Chance Tab

tabbed by: tessa r
email: nofxchick934@hotmail.com

i went to their show last night!! they rocked! anyway,
the other tab for this song was wrong so heres how you really play it. 

standard tuning: eBGDAE
... : palm mute

intro:
e|-----------------------------------------------------------------|
B|-----------------------------------------------------------------|
G|--111111111111-999999-888888-666666-88888-44444-111111111-66666--|
D|---x-x-x-x-x-x-xxxxxx-xxxxxx-xxxxxx-xxxxx-xxxxx-x-x-x-x-x-xxxxx--|
A|---9-9-9-9-9-9-777777-666666-444444-66666-22222-9-9-9-9-9-44444--| x2
E|-----------------------------------------------------------------|
[ Tab from: http://www.guitartabs.cc/tabs/s/starting_line/given_a_chance_tab_ver_3.html ]
verse: PM
part 1
e|------------------|
B|------------------|
G|------------------|
D|--2--666--2--444--|
A|--2--666--2--444--| x2
E|--0--444--0--222--|
       ...     ...

part 2
e|-----------------|
B|-----------------|
G|-----------------|
D|--222--666--444--|
A|--222--666--444--| x4?
E|--000--444--222--|
    ...  ...  ...

chorus:
e|----------------------------------|
B|----------------------------------|
G|--44-4----44-4------------44-4----|
D|--44-422-244-444-466-622-244-444--|
A|--22-200-222-244-466-622-222-244--|
E|------00-0----22-244-400-0----22--|
                   ... ... ... ...

verse 2 is same as verse 1

bridge is the same chords as part 2 of the verse repeated over and over

end on B!

there you go, enjoy! =)
Comments