Starting Line - Drama Summer Chords & Tabs

 

Drama Summer Chords & Tabs

Starting Line Chords & Tabs

Version: 1 Type: Chords 0 ratings
1 star 2 stars 3 stars 4 stars 5 stars
comments

Drama Summer Chords

   
this song is not an easy one to figure out because the recording is not great but this is
pretty close. some things are'nt perfect, forgive me. SORRY THERE ARE'NT ANY 2ND GUITAR
PARTS, I'LL FIGURE THEM OUT WHEN THE NEW CD COMES OUT IN JULY. 

Chords:
  D5  A5  G5  E5  E5ii      G5ii    F#6    B5
e-----------------------------------------------------------
B------------------------------------------3----------------
G-7----7-----------------------------------4----------------
D-7----7---5---2---9-----------------------4---------------
A-5----5---5---2---7-----------------------2----------------
E------5---3---0--------------------------------------------


INTRO(GT.1) : D5-A5-G5-E5-G5

VERSE
[ Tab from: http://www.guitartabs.cc/tabs/s/starting_line/drama_summer_crd.html ]
D5                          A5                         B5 
WE CAN WAIT FOR THE WIND TO BLOW, OR GIVE ME A LOOK SO COLD
B5                      E5ii
IT GIVES ME CHILLS, AND ENDS THE SUMMER WARMTH.
D5                A5       
MY EYES ROLL (MY EYES ROLL), ROUND AND OVER AND AGAIN, 
B5            D5-A5-G5              E5ii-D5
FALLING DOWN, DIZZY ?????????????
D5                 B5                           E5ii
I'LL BE THERE, AND I'LL TRY TO IDENTIFY, TRY TO LOOK 
                              G5
THROUGH THE GRAY SKYS IN YOUR EYES
D5       B5                    A5             G5
       I'LL PICK UP EVERYTHING YOU LEFT BEHIND
D5                 A5                    B5
CROSS YOUR FINGERS, AND PRAY FOR WINTER; I'LL BE THERE, 
E5ii         D5         A5      G5 
PAINTING THE TOWN YOUR FAVORITE COLOR 

e----------------------------------------------------------
B-----7---------7---7--------------------------------------
G----7-7---------7---7-------------------------------------
D---7---7-(3X)----7---7-------------------------------------
A--5-------------------------------------------------------
E----------------------------------------------------------

PART WHERE HE SAYS "I'LL CALL, OR SEE YOU AROUND":

GT1: D5-E5ii-B5-G5

GT2:COMES IN ON THE 3RD TIME

e-----------------------------------------------------------
B----------------------------------------------------------
G-11-12--14--12--11--7--------------------------------------
D-X---X---X---X--X---X-------------------------------------
A-9--10--12--10--9---5--------------------------------------

THIS IS AFTER 4X OF "I'LL CALL OR SEE YOU AROUND":
 
(I CAN'T FIGURE OUT THE 2ND GUITAR PARTS HERE) (IT'S REALLY THAT I DON'T HAVE THE TIME BUT IT'S OK)

D5                     E5ii   B5                   G5     
I'LL CALL OR SEE YOU AROUND, I'LL CALL OR SEE YOU AROUND
D5                     E5ii   B5                   G5
I'LL CALL OR SEE YOU AROUND, I'LL CALL OR SEE YOU AROUND
D5                     A5       G5        G5-D5
PAINTING THE TOWN YOUR FAVORITE COLOR

TABBED BY: STEPHEN BURN
Comments