Starting Line - Cheek To Cheek Chords & Tabs

 

Cheek To Cheek Chords & Tabs

Starting Line Chords & Tabs

Version: 3 Type: Tab 0 ratings
1 star 2 stars 3 stars 4 stars 5 stars
comments

Cheek To Cheek Tab

Artist: Starting line, the
Track: Cheek to cheek
Album: Say it like you mean it

Intro: palm muted

E ---------------------------------------------------------------------|
B --8-8--8-6-6-6--5-5--5-6-6-6(x2)---8-8--8-6-6-6--5-5--5-5h6---5-----|
G -------------------------------------------------------------6--6----|
D ---------------------------------------------------------------------|
A ---------------------------------------------------------------------|
D ---------------------------------------------------------------------|


Intro pt 2: Lead guitar

E --------------------------------------8--------8---------|
B --------------------------------5h6p5----5h6p5----(5h6)--|
G --9-10-10-10--9-10-10-10--10-9---------------------------|
D --x--x--x--x--x--x--x--x---x-x---------------------------|
A --7--8--8--8--7--8--8--8---8-7---------------------------|
D ---------------------------------------------------------|

E -------8-------------------------------------------------------------|
B -5h6p5----5h6h5----5h6-5h6-------------------------------------------|
G ----------------7----------5--5-7-5~---9-10-10-10--9-10-10-10--10-9--|
D ---------------------------------------x--x--x--x--x--x--x--x---x-x--|
A ---------------------------------------7--8--8--8--7--8--8--8---8-7--|
D ---------------------------------------------------------------------|


Intro pt 2: Rhythm guitar
[ Tab from: http://www.guitartabs.cc/tabs/s/starting_line/cheek_to_cheek_tab_ver_3.html ]
E -----------------|
B -----------------|
G -----5-----------| The strumming pattern isn't very hard!
D --3--5--5--3-----|
A --3--3--5--3-----|
D --1-----3--1-----|


Verse: Lead guitar (palm muted)

E --------------------------------------------|
B --6-6-------5-------5-------5---------------|
G ------5---6---6---6---6---6---6-------------|
D --------------------------------------------|
A --------------------------------------------|
D --------------------------------------------|

Verse: Rhythm guitar


E --------------------------------------------|
B --------------------------------------------|
G --------------------------------------------|
D --3~----3~---------3-------------5----------|
A --3~----3~-----3-----3-------5-----5--------|
D --1~----1~---1---1-----1---3---3-----3------|


E --------------------------------------------|
B --------------------------------------------|
G --------------------------------------------|
D --------7-------------8---------------------|
A ----7-----7-------8-----8-------------------|
D --5---5-----5---6---6-----6-----------------|

Then play Intro pt 2


Chorus:

E ---------------------------------------------------------------------|
B ---------------------------------------------------------------------|
G -------------------5-5-5-5-5-5-5-5-----------------------------------|
D --3-3-3-3-3-3-3-3--5-5-5-5-5-5-5-5--5-5-5-5-5-5-5-5--5-5-5-5-5-5-5-5-|
A --3-3-3-3-3-3-3-3--3-3-3-3-3-3-3-3--5-5-5-5-5-5-5-5--5-5-5-5-5-5-5-5-|
E --1-1-1-1-1-1-1-1-------------------3-3-3-3-3-3-3-3--3-3-3-3-3-3-3-3-|

Sorry but I couldn't work the break out so I hope this ok!
Comments