Starting Line - Cheek To Cheek Chords & Tabs

 

Cheek To Cheek Chords & Tabs

Starting Line Chords & Tabs

Version: 1 Type: Tab 1 rating
1 star 2 stars 3 stars 4 stars 5 stars
comments

Cheek To Cheek Tab

   
This is my First tab so go easy on me ... it sounds right though, but on some parts you are just going to have to listen to the song for timeing and rythme. Enjoy! (email me if you have any questions) 

|X| = Palm Mute 


(Intro) 
e|----------------------------------------------------------------------------------------------| 
B|----------------------------------------------------------------------------------------------| 
G|--------12----12-------12-------10----10-----10-------9----9-------9-------10----10-----10----| 
D|--10-10----10----10-10----10-10----10----10-----10-10---10---10-10---10-10----10----10--------| 
A|----------------------------------------------------------------------------------------------| 
E|----------------------------------------------------------------------------------------------| 
Repeat a few times palm muted, then when he starts to sing, release the palm mute 

e|-------------------------------------------------------------------------------------------------------| 
B|-------------------------------------------------------------------------------------------------------| 
G|--12-12-12-12-12-12-12-12--10-10-10-10-10-10-10-10--9--9--9--9--9--9--9--9----10-10-10-10-10-10-10-10--| 
D|--10-10-10-10-10-10-10-10--10-10-10-10-10-10-10-10--10-10-10-10-10-10-10-10---10-10-10-10-10-10-10-10--|
A|-------------------------------------------------------------------------------------------------------| 
E|-------------------------------------------------------------------------------------------------------| 
|                        (palm muted)^Don’t palm mute the nine (but everything else is palm muted)
(Riff A) 
e|-----------------------------------| 
B|-----------------------------------| 
G|--10-10-10-10--10-10-10-10--9--9---| 
D|--10-10-10-10--10-10-10-10--10-10--| 
A|--8--8--8--8---8--8--8--8---8--8---| 
E|-----------------------------------| 
[ Tab from: http://www.guitartabs.cc/tabs/s/starting_line/cheek_to_cheek_tab.html ]
(Riff B) 
e|------------------------------------------------------------------------------------| 
B|-----------13----------13------------------13---------------------------------------| 
G|--10-12-10----10-12-10----10-12-12--9-10-9-----9-10-9-7--9-10-10--9-10-9-5--5-7-5---| 
D|------------------------------------------------------------------------------------| 
A|------------------------------------------------------------------------------------| 
E|------------------------------------------------------------------------------------| 

(Verse) *Listen to song for rythme and timeing
e|------------------------------------------------------------------------------------| 
B|------------------------------------------------------------------------------------| 
G|---10-10----10-----10-------10-10-----10-------10--------10--------10--------10-----| 
D|--10----10----10----10----10-10----10----10-10----10--10----10--10----10--10----10--| 
A|--8---------------8-----------------------------------------------------------------| 
E|------------------------------------------------------------------------------------| 

(Chorus) 
e|-----------| 
B|-----------| 
G|-----5--3--| 
D|--3--5--3--| 
A|--3--3--1--| 
E|--1--------| 
"Sing this song for me”

(Break Down A) 
E|--------------------------------------------------------------------------| 
B|--------------------------------------------------------------------------| 
G|--10*---9--9--9---9--9--9---9--9--9---9--9--9---9--9--9----10-------------| 
D|--10*---10-10-10--10-10-10--10-10-10--10-10-10--10-10-10---10-------------| 
A|--8-*---8--8--8---8--8--8---8--8--8---8--8--8---8--8--8----8--------------| 
E|--------------------------------------------------------------------------| 


(Break Down B) 
e|------------------------------------| 
B|------------------------------------| 
G|---10-10-10-10--10-10-10-10--9--9---| 
D|---10-10-10-10--10-10-10-10--10-10--| 
A|---8--8--8--8---8--8--8--8---8--8---| 
E|------------------------------------| 
after he says "Try and look into my eyes, Try" play this riff 

(End) 
e|---------------------------------------| 
B|---------------------------------------| 
G|--10-10-10-10--10-10-10-10--9--9-------| 
D|--10-10-10-10--10-10-10-10--10-10--3---| 
A|--8--8--8--8---8--8--8--8---8--8---3---| 
E|-----------------------------------1---| 


Comments