Starting Line - Best Of Me Chords & Tabs

 

Best Of Me Chords & Tabs

Starting Line Chords & Tabs

Version: 1 Type: Tab 0 ratings
1 star 2 stars 3 stars 4 stars 5 stars
comments

Best Of Me Tab

The Starting Line ? Best of Me
Tabber ? ACCEL
Email staine_082000@yahoo.com

Intro/Chorus
e-----------------------------------------------------------------|
B-----------------------------------------------------------------|
G-1-11-2-2222-4-44-4-4444-2-22-2-2222-6-66-4-4444----------2------|
D-2-22-2-2222-4-44-2-2222-2-22-2-2222-6-66-4-4444-x2--end--2------|
A-2-22-0-0000-2-22-4-4444-0-00-0-0000-4-44-2-2222------on--0------|
E-----------------------------------------------------------------|

Guitar 1 (guitar 2 plays intro in background)
e-----------------------------------------------------------------|
B-----------------------------------------------------------------|
G-13-12-11-9999---4-9-9-9999---9-9-6-4444---9-9-8-9/8/9----end-9--|
D--x--x--x-xxxx---x-x-x-xxxx---x-x-x-xxxx---x-x-x-x-x-x-x2--on-x--|
A-11-14--9-7777---2-7-7-7777---7-7-4-2222---7-7-6-7/6/7--------7--|
E-----------------------------------------------------------------|

Verse ? Guitar 1
e---0---0---0---0---0---0---0---0---------------------------------|
B--0-0-0-0-0-0-0-0-0-0-0-0-0-0-0-0--------------------------------|
G-9---9---8---8---6---6---4---4-----------------------------------|
D-----------------------------------------------------------------|
A-----------------------------------------------------------------|
E-----------------------------------------------------------------|
[ Tab from: http://www.guitartabs.cc/tabs/s/starting_line/best_of_me_tab.html ]
Guitar 2
e-----------------------------------------------------------------|
B-----------------------------------------------------------------|
G-999------999------999-----999-----------------------------------|
D-999------999------999-----999-----------------------------------|
A-777------777------777-----777-----------------------------------|
E-----------------------------------------------------------------|

Part in verse with distortion
e-------------------------|
B-------------------------|
G-------------------------|
D--77777777---------------|
A--77777777---------------|
E--55555555---------------|

Pre-Chorus
e-----------------------------------------------------------------|
B-----------------------------------------------------------------|
G-----------------------------------------------------------------|
D-44444444-77777777-44444444-77777777-----------------------------|
A-44444444-77777777-44444444-77777777-----------------------------|
E-22222222-55555555-22222222-55555555-----------------------------|

Slow Part
e-0---0---0---0-----------------------0---0---0-------------------|
B--0---0---0---0----then-switches-to---4---4---4------------------|
G---4---4---4---4-----------------------4---4---4-----------------|
D-----------------------------------------------------------------|
A-----------------------------------------------------------------|
E-----------------------------------------------------------------|

this is absolutely 99 percent correct......
if any comments pls comprehend with ne...
Comments