Starting Line - Autography Chords & Tabs

 

Autography Chords & Tabs

Starting Line Chords & Tabs

Version: 1 Type: Bass Tab 0 ratings
1 star 2 stars 3 stars 4 stars 5 stars
comments

Autography Bass Tab

The Starting Line
Song:Autography
Album:Based on a True Story
Tabbed by:bISMARCK

Intro-0:01

G |----------------------------------------------------------------||
D |----------------------------------------------------------------||
A |33-33-3-3x7---------8~/---33-33--7-5-7-10----------8~-----------||
D |------------33-33--------------------------33-33----------------||

Verse x2-0:15 *the second time he plays a few extra notes i think its this 55-7-9-7-5,listen for the timing.

G |----------------------------------------------------------------||
D |----------------------------------------------------------------||
A |33-33--5-5-5~-*-----/88--3-5-7-3--------------------------------||
D |---------------33-----------------------------------------------||

Verse2 x2-0:44 #Figure out the timing and second time end on 5~
[ Tab from: http://www.guitartabs.cc/tabs/s/starting_line/autography_btab.html ]
G |----------------------------------------------------------------||
D |----------------------------------------------------------------||
A |------------5#--------------------------------------------------||
D |7#-2#-3#--------------------------------------------------------||

Introx1-1:05

Chorus
G |----------------------------------------------------------------||
D |----------------------------------------------------------------||
A |3#--------5##---------------------------------------------------||
D |----3#-5#-----3#-5#---------------------------------------------||

Verse x2-1:34

Verse2 x2-2:03

Introx1-2:24

Chorus-2:39

Interlude 2:53

G |----------------------------------------------------------------||
D |----------------------------------------------------------------||
A |3333----8888------3333-3--8888----3333-3--8888------------------||
D |--------------33---------------3---------------3----------------||

Chorus-3:14

Outro-3:28

G |----------------------------------------------------------------||
D |----------------------------------------------------------------||
A |33-33-3-3x7--------8\-------------------------------------------||
D |------------33-33-----------------------------------------------||

Please rate it
Comments