Starsailor - Tie Up My Hands Chords & Tabs

 

Tie Up My Hands Chords & Tabs

Starsailor Chords & Tabs

Version: 1 Type: Tab

Tie Up My Hands Tab

   
Tie up my hands - Starsailor - Love is here


Standard tuning

It takes a while to get the timing right on the finger picking but
its well worth while, definitely one of the best songs on the album!
I've written the chords abover the tab should you prefer just to strum
along to the verse,it still sounds pretty good. Enjoy!

[Intro]


e -----------------------------------------------------------------|
b ----3------3h4-3----------------------3-----3h4-3----------------|
g 5-5---5---------5-5--3--5--5--5---5-5--5---------5-5--3----------|
d -5-----5------5--5-5--5--5--5--5---5----5------5--5-5--5-5-5-5---|
a --------------------3--3--3-----------------------------3--3---3-|
E -----------------------------------------------------------------|


e ------------------------------------------------------------------|
b ---1--1--1--------1--1--1--1----------4--4--3-------4--4--3-------|
g -1--1--1--1-1---1--1--1--1--1-1-----5--5--5--5-5--5--5--5--5-5----|  x 2
d --3--3--3--3-----3--3--3--3--3-----5-5--5--5--5--5-5--5--5--5-----|
a --3-----------3---------------------------------------------------|
E ------------------------------------------------------------------|

[Verse]

    Cm

e -----------------------------------------------------------------|
b ----3------3h4-3----------------------3-----3h4-3----------------|
g 5-5---5---------5-5--3--5--5--5---5-5--5---------5-5--3----------|
d -5-----5------5--5-5--5--5--5--5---5----5------5--5-5--5-5-5-5---|
a --------------------3--3--3-----------------------------3--3---3-|
E -----------------------------------------------------------------|

wipe the make-up from your face, tie your hair and gently fall from


  Fm				     Cm
[ Tab from: http://www.guitartabs.cc/tabs/s/starsailor/tie_up_my_hands_tab.html ]
e ------------------------------------------------------------------|
b ---1--1--1--------1--1--1--1----------4--4--3-------4--4--3-------|
g -1--1--1--1-1---1--1--1--1--1-1-----5--5--5--5-5--5--5--5--5-5----|
d --3--3--3--3-----3--3--3--3--3-----5-5--5--5--5--5-5--5--5--5-----|
a --3-----------3---------------------------------------------------|
E ------------------------------------------------------------------|

 grace,        until i come again


   Cm

e -----------------------------------------------------------------|
b ----3------3h4-3----------------------3-----3h4-3----------------|
g 5-5---5---------5-5--3--5--5--5---5-5--5---------5-5--3----------|
d -5-----5------5--5-5--5--5--5--5---5----5------5--5-5--5-5-5-5---|
a --------------------3--3--3-----------------------------3--3---3-|
E -----------------------------------------------------------------|

take the dissaffected life,      men who ran the company ran your

   Fm   			     G	  	       G7

e ------------------------------------3---3---3--------1---1---1-----|
b ----1--1--1--1-------1--1--1------0---0--0---0-0--0---0---0---0-0--|
g --1--1--1--1--1-1--1--1--1--1-1--0-0---0--0---0--0-0---0---0---0---|
d ---3--3--3--3--3----3--3--3--3-------------------------------------|
a -3----------------3------------------------------------------------|
E -------------------------------------------------------------------|

  life you could have been his wife

[Chorus]


Cm
I want to love you but my hands are tied

G
I want to stay here but i've been denied

G#						D#
Lets watch the clock until the morning sun does rise

{Verse and chorus remain pretty much the same throughout the song}

[Chords]

Cm	335543
G	320003
G7	320001
D#	668886
G#      466544

Please feel free to email any comments or suggestions, rob_w2k2@hotmail.com