Stars - Reunion Chords & Tabs

 

Reunion Chords & Tabs

Stars Chords & Tabs

Version: 1 Type: Bass Tab

Reunion Bass Tab

Title: Reunion
Band: Stars
Album: Set Yourself on Fire
Tuning: Standard
Tabbing by: Sean Konagaya

Send comments to MeeCexii@hotmail.com

INTRO
(0:00) ...
|--------------------------------------|
|-----3333222--------------------------| x2
|-3333---------------------------------|
|------------333446666-111113333333----|

VERSE 
(0:17) In the year of my decline...
|--------------------|--------------------------|
|-----3----2---------|---5-6-7-3---—3035--------|
|-33---3----2---35-3-|------------------------5-|
|-------1----0-------|-------------------33-3---|

|--------------------|--------------------------|
|-----3----2---------|------5673---—3035--------| x2
|-33---3----2---35-3-|------------------------5-|
|-------1----0-------|-------------------33-3---|

|--------------------|--------------------------|
|-----3----2---------|---5-6-7-3---—3035--------| x4
|-33---3----2---35-3-|------------------------5-|
|-------1----0-------|-------------------33-3---|

CHORUS 
(1:09) All I want is one more chance...
|---------3350-------|
|--------------------|
|-332200--------002--|
|-------33-----------|

|---------3350-------|
|--------------------|
|-332200---------02--|
|-------33------3----|

|---------3350--000--|
|--------------------| x2
|-332200-------------|
|-------33-----------|

BRIDGE
(1:27) ...
|--------------------------------------|
|-----3333222--------------------------| x2
|-3333---------------------------------|
|------------33344---6-111113333333----|
[ Tab from: http://www.guitartabs.cc/tabs/s/stars/reunion_btab.html ]
VERSE
(1:43) I’m back in gym and it’s the same...
|--------------------|--------------------------|
|-----3----2---------|---5-6-7-3---—3035--------|
|-33---3----2---35-3-|--------------------------|
|-------1----0-------|-------------------33-3---|

|--------------------|--------------------------|
|-----3----2---------|------5673---—3035--------| x3
|-33---3----2---35-3-|--------------------------|
|-------1----0-------|-------------------33-3---|

|--------------------|--------------------------|
|-----3----2---------|---5-6-7-3---—3035--------|
|-33---3----2---35-3-|--------------------------|
|-------1----0-------|-------------------33-3---|

|--------------------|--------------------------|
|-----3----2---------|------5673---—3035--------|
|-33---3----2---35-3-|--------------------------|
|-------1----0-------|-------------------33-3---|

CHORUS
(2:36) All I want is one more chance...
|---------3350-------|
|--------------------|
|-332200--------002--|
|-------33-----------|

|---------3350-------|
|--------------------|
|-332200---------02--|
|-------33-----------|

|---------3350--000--|
|--------------------|
|-332200-------------|
|-------33-----------|

|---------3350-------|
|--------------------|
|-332200--------002--|
|-------33-----------|

|---------3350-------|
|--------------------|
|-332200---------02--|
|-------33------3----|

|---------3350-------|
|--------------------|
|-332200----------02-|
|-------33-----------|

|---------3350--000--|
|--------------------|
|-332200-------------|
|-------33-----------|

|---------3350--000--|
|--------------------|
|-332200-------------|
|-------33-----------|

OUTRO
(3:11) Reunion reunion...
|-55442200-----------|
|---------332200-0---| x3
|--------------------|
|--------------------|

|-55442200-----------|
|---------332200-0---| 
|------------------3-|
|--------------------|