Stars - Big Fight Chords & Tabs

 

Big Fight Chords & Tabs

Stars Chords & Tabs

Version: 1 Type: Bass Tab 0 ratings
1 star 2 stars 3 stars 4 stars 5 stars
comments

Big Fight Bass Tab

   
-------------------------------------------------------------------------------
			     The Big Fight - Stars
-------------------------------------------------------------------------------

Tabbed By : imessyou
e-mail: theblochead@hotmail.co.uk

Tuning: Standard but there is a bit during the beat breakdown bit at the end where
there is a low C so you might wanna whip your five string out for that, otherwise
just play that section up an octave, it still sounds fine.

Intro
G|------------|--------|
D|------------|--------|
A|-5-----3----|--------|
E|----5-----3-|-1------|

Verse
"How could you do it?..."
(Make up small fills here and there)
G|--------|--------|--------|-----------|
D|--------|--------|--------|-----------|
A|--------|--------|--------|-----------|
E|0-0-----|-1-1----|-0-0----|-1-1---1-1-|

Chorus
"It doesn't wanna but it just won't let it go..."
(Play around the F)
G|---------------|-----------|
D|---------------|-----------|
A|-5------3------|-----------|
E|----5-------3--|-1-1----1-1|
[ Tab from: http://www.guitartabs.cc/tabs/s/stars/big_fight_btab.html ]
Verse
"The clothes in the wardrobe..."
(Again make up small fills here and there)
G|--------|--------|--------|-----------|
D|--------|--------|--------|-----------|
A|--------|--------|--------|-----------|
E|0-0-----|-1-1----|-0-0----|-1-1---1-1-|

Chorus
"It doesn't wanna but it just won't let it go..."
(Play around the F)
G|---------------|-----------|
D|---------------|-----------|
A|-5------3------|-----------|
E|----5-------3--|-1-1----1-1|

Here is a nice fill
G|---------------|-------------|
D|---------------|-------3--5--|
A|-5------3------|-----3-------|
E|----5-------3--|-0-1---------|

Beat Breakdown section
There is basically one riff played with slides ect. Have fun with it, this bit is
great for high stuff. You could possibly solo over the original bassline, have some
fun. Here is the template bass
G|---------|-------------------|
D|---------|-------------------|
A|---------|-------------------|
E|-0-------|----10----8--------|
B|---------|---------------1---|
If you have no five string, no fear, just play it an octave higher with all of the
lows up on your amp. Or you could even downtune down to C on the E string after the
main part of the song finishes. 

Have fun with the tune, its a great chillout song. Please rate.

| /  slide up
| \  slide down
| h  hammer-on
| p  pull-off
| ~  vibrato
| +  harmonic
| x  Mute note
===============================================================================
Comments