Stars - Ageless Beauty Chords & Tabs

 

Ageless Beauty Chords & Tabs

Stars Chords & Tabs

Version: 1 Type: Bass Tab 0 ratings
1 star 2 stars 3 stars 4 stars 5 stars
comments

Ageless Beauty Bass Tab

   
-------------------------------------------------------------------------------
			     Ageless Beauty - Stars
-------------------------------------------------------------------------------

Tabbed By : imessyou
e-mail: theblochead@hotmail.co.uk

Tuning: standard EADG

Intro/Verse
G|8-8-8-8-8-8-8-7|7-7-7-7-7-7-7-5|5-5-5-5-5-5-5-5|5-5-5-5-5----|---------------|
D|---------------|---------------|---------------|----------8-8|6-6-6-6-6-6-6-6|
A|---------------|---------------|---------------|-------------|---------------|
E|---------------|---------------|---------------|-------------|---------------|

(cont)
G|---------------|---------------|---------------|
D|5-5-5-5-5-5-5-5|---------------|---------------|
A|---------------|8-8-8-8-8-8-8-8|8-8-8-8-8-8-8-8|
E|---------------|---------------|---------------|

Verse
"Ageless Beauty..."
G|---------------|---------------|---------------|--------------|---------------|
D|---------------|---------------|---------------|--------------|---------------|
A|6-6-6-6-6-6-6-5|5-5-5-5-5-5-5-3|3-3-3-3-3-3-3-3|3-3-3-3-3-3---|---------------|
E|---------------|---------------|---------------|-----------3-3|4-4-4-4-4-4-4-4|

(cont)
"Cruelty..."
G|---------------|---------------|---------------|
D|---------------|---------------|---------------|
A|---------------|---------------|---------------|
E|3-3-3-3-3-3-3-3|6-6-6-6-6-6-6-6|6-6-6-6-6-6-6-6|X2

Chorus
"We will always be a light..."
(Dodgy timings here, listen closer, could possibly be a different time signature, but I'll tab it in 4/4)
G|--------------|--------------|---------------|---------------|
D|6-6-6-6-6-----|--------------|---------------|---------------|
A|--------------|-------6-6-6-6|6-6-6-6-6-6-6-6|6-6-6-6-6-6-6-6|
E|---------4-4-4|4-4-4-4-------|---------------|---------------|X4

Pre-verse
G|8-8-8-8-8-8-8-7|7-7-7-7-7-7-7-5|5-5-5-5-5-5-5-5|5-5-5-5-5----|---------------|
D|---------------|---------------|---------------|----------8-8|6-6-6-6-6-6-6-6|
A|---------------|---------------|---------------|-------------|---------------|
E|---------------|---------------|---------------|-------------|---------------|

(cont)
G|---------------|---------------|---------------|
D|5-5-5-5-5-5-5-5|---------------|---------------|
A|---------------|8-8-8-8-8-8-8-8|8-8-8-8-8-8-8-8|
E|---------------|---------------|---------------|

Verse
"Tattered Fingers..."
G|---------------|---------------|---------------|--------------|---------------|
D|---------------|---------------|---------------|--------------|---------------|
A|6-6-6-6-6-6-6-5|5-5-5-5-5-5-5-3|3-3-3-3-3-3-3-3|3-3-3-3-3-3---|---------------|
E|---------------|---------------|---------------|-----------3-3|4-4-4-4-4-4-4-4|
[ Tab from: http://www.guitartabs.cc/tabs/s/stars/ageless_beauty_btab.html ]
(cont)
"Lingering on the warm and foolish..."
G|---------------|---------------|---------------|
D|---------------|---------------|---------------|
A|---------------|---------------|---------------|
E|3-3-3-3-3-3-3-3|6-6-6-6-6-6-6-6|6-6-6-6-6-6-6-6|X2

Chorus
"We will always be a light..."
G|--------------|--------------|---------------|---------------|
D|6-6-6-6-6-----|--------------|---------------|---------------|
A|--------------|-------6-6-6-6|6-6-6-6-6-6-6-6|6-6-6-6-6-6-6-6|
E|---------4-4-4|4-4-4-4-------|---------------|---------------|X4

Bridge (well sort of)
G|8-8-8-8-8-8-8-7|7-7-7-7-7-7-7-5|5-5-5-5-5-5-5-5|5-5-5-5-5----|---------------|
D|---------------|---------------|---------------|----------8-8|6-6-6-6-6-6-6-6|
A|---------------|---------------|---------------|-------------|---------------|
E|---------------|---------------|---------------|-------------|---------------|

(cont)
G|---------------|---------------|---------------|
D|5-5-5-5-5-5-5-5|---------------|---------------|
A|---------------|8-8-8-8-8-8-8-8|8-8-8-8-8-8-8-8|
E|---------------|---------------|---------------|

"Oceans wont freeze..."
G|8-8-8-8-8-8-8-7|7-7-7-7-7-7-7-5|5-5-5-5-5-5-5-5|5-5-5-5-5----|---------------|
D|---------------|---------------|---------------|----------8-8|6-6-6-6-6-6-6-6|
A|---------------|---------------|---------------|-------------|---------------|
E|---------------|---------------|---------------|-------------|---------------|

(cont)
G|---------------|5--------------|---------------|
D|5-5-5-5-5-5-5-5|--8-8-8-8-8-8-8|8-8-8-8-8-8-8-8|
A|---------------|---------------|---------------|
E|---------------|---------------|---------------|

"Underestimated..."
G|---------------|---------------|---------------|--------------|---------------|
D|---------------|---------------|---------------|--------------|---------------|
A|6-6-6-6-6-6-6-5|5-5-5-5-5-5-5-3|3-3-3-3-3-3-3-3|3-3-3-3-3-3---|---------------|
E|---------------|---------------|---------------|-----------3-3|4-4-4-4-4-4-4-4|

(cont)
"Undefeated in this love..."
G|---------------|---------------|---------------|
D|---------------|---------------|---------------|
A|---------------|---------------|---------------|
E|3-3-3-3-3-3-3-3|6-6-6-6-6-6-6-6|6-6-6-6-6-6-6-6|

Chorus
"We will always be a light..."
G|--------------|--------------|---------------|---------------|
D|6-6-6-6-6-----|--------------|---------------|---------------|
A|--------------|-------6-6-6-6|6-6-6-6-6-6-6-6|6-6-6-6-6-6-6-6|
E|---------4-4-4|4-4-4-4-------|---------------|---------------|X Whatever

Chorus with fill
"We will always be a light..."
G|--------------|--------------|---------------|-----------------|
D|6-6-6-6-6-----|--------------|---------------|--------10-10-8-8|
A|--------------|-------6-6-6-6|6-6-6-6-6-6-6-6|6-6-6-6----------|
E|---------4-4-4|4-4-4-4-------|---------------|-----------------|

Please rate.

| /  slide up
| \  slide down
| h  hammer-on
| p  pull-off
| ~  vibrato
| +  harmonic
| x  Mute note
===============================================================================
Comments