Starkicker - Neil Armstrong Chords & Tabs

 

Neil Armstrong Chords & Tabs

Starkicker Chords & Tabs

Version: 2 Type: Bass Tab 0 ratings
1 star 2 stars 3 stars 4 stars 5 stars
comments

Neil Armstrong Bass Tab

   
Neil Armstrong-Starkicker
Tabbed by Yerp
rhergott@bserv.com email with any comments or questions
Tuning: E A D G

This might not be completely accurate, but it's pretty close. 
There are probably some variations of the riffs with some extra notes thrown in...
I'll figure it out sometime... 
[ Tab from: http://www.guitartabs.cc/tabs/s/starkicker/neil_armstrong_btab_ver_2.html ]
Neat Lil Main Riff
G|------------------------------------------------|
D|-----------------5----7----------------7/----5/-|
A|-----5----5--33----55-------2-----2-55----33----|
E|-33----33----------------00----00---------------|

Chorus
G|-----------------|
D|-----------------|
A|-3---5---7---5---|
E|---3---5---7---5-|

Other part of the chorus
G|--------------------|
D|--------------------|
A|-3333-5555----------|
E|-----------55555555-|

Just go back and forth between these riffs. 
There is a variation of the main riff tossed in there, 
probably just leaving out most of the second notes of the power chords. 

Enjoy.
Comments