Starflyer 59 - Leigh And Me Chords & Tabs

 

Leigh And Me Chords & Tabs

Starflyer 59 Chords & Tabs

Version: 2 Type: Tab 0 ratings
1 star 2 stars 3 stars 4 stars 5 stars
comments

Leigh And Me Tab

#----------------------------------PLEASE NOTE---------------------------------#
#This file is the author's own work and represents their interpretation of the #
#song. You may only use this file for private study, scholarship, or research. #
#------------------------------------------------------------------------------##
"Leigh and Me (the Starflyer 2000 reprise)" from the album "Le Vainqueur"
			     by Starflyer 59
All lyrics and music copyright Jason Martin/Spinning Audio Vortex Music
transcription by G. Michael Reynolds
send comments to: mikejr@freenet.fsu.edu

	Well folks, here it is, finally! A Starflyer 59 love song done in the Martin manner. (this is a great one 
learn for all you guys that got dumped and want your girl back.;) ) Please forgive me for this not being 
right. I usually take certain liberties when playing other peoples music so that I'm not totally ripping them off.  The solo is very similar to the one on the 
but like I said, it's done my way. If you want the right way, write Jason and ask him for it. The lyrics are probably all wrong too, but hey, it's all good to me. ;)

                                    Legend
-------------------------------------------------------------------------------
                                Rythym Symbols
Above the Bar:

W       - Whole Note                    H       - Half Note
Q       - Quarter note                  E       - Eighth note
g       - Grace notes                   .       - Dotted note
-       - Tied note                     xR      - Rest for duration of x
  3
[XXX]   - Notes to be played as triplettes

Within the Bar:

:       - repeat marks                  |       - bar seperators
^       - full bend                     h^      - half bend
r^      - Release bend, note still ringing
~       - vibrato                       p       - pull off
w~      - wide vibrato                  h       - hammer on
\       - slide down                    t       - tapped note
/       - slide up                      <>      - harmonic
x       - muted or click strings        X\      - pick slide
T       - use thumb

-------------------------------------------------------------------------------

drop-d tuning (DADGBE) played very slowly 4/4 time (i think)

e--------------------------------------------------------------------\-|
B----------------------------------------------------------------------|
G-3-------3------------------------------------------------------------|
D-3---3---3-3-1-----3----played a few times----------------------------|
A-1---3---1-3-1-----3--------------------------------------------------|
d-----3-----3-1-----3--------------------------------------------------|

[ Tab from: http://www.guitartabs.cc/tabs/s/starflyer_59/leigh_and_me_tab_ver_2.html ]
e--------------------------------------------------------------------\-|
B----------------------------------------------------------------------|
G----------------------------------------------------------------------|
D-3-3----3-3/10-10-----10--10/12-12-----12-12\1------------------------|
A-3-3----3-3/10-10-----10--10/12-12-----12-12\1--repeat----------------|
d-3-3-3m-3-3/10-10-10m-10--10/12-12-12m-12-12\1------------------------|


the chorus is the same as the first verse part. This little solo is optional if ya got two guitars going.
e--3-3h5-3----------------------\-|
B----------6-3--------------------|
G---------------------------------|
D---------------------------------|
A---------------------------------|
d---------------------------------|

For all you neglected bass players out there, here's the bass lines for the above parts. This also is in 
DADG
G--------------------------------------------------------------------\-|
D----------------------------------------------------------------------|
A----------------------------------------------------------------------|
d-8-3-8-88-8-8-3-3-3-3-1-11-1-1/3-33-3-repeated------------------------|

ok heres the good stuff. Where the break begins and the bass and guitar parts separate completely.

bass:
G--------------------------------------------------------------------\-|
D----------------------------------------------------------------------|
A----------------------------------------------------------------------|
d-8-7-5-3-1--3-repeated------------------------------------------------|

guitar: here's the solo...my way ;)
e--------------------------------------------------------------------\-|
B----------------------------------------------------------------------|
G-10-10-10-10h12-10----------------------------------------------------|
D-------------------12-10-10h12-(x2)-----------------------------------|
A----------------------------------------------------------------------|
d----------------------------------------------------------------------|

e--------------------------------------------------------------------\-|
B----------------------------------------------------------------------|
G-------10-12-12^14-12^14r12-12----------------------------------------|
D-10-12--------------------------12-10-10h12-12--10-8-7-5-55h7-8-------|
A----------------------------------------------------------------------|
d----------------------------------------------------------------------|

e--------------------------------------------------------------------\-|
B----------------------------------------------------------------------|
G------------10-12-12^14r12-----------------------------------12-------|
D10-10-10-12----------------12-10-10h12------8-10-10/12-12/15----12----|
A---------------------------------------8-10---------------------------|
d----------------------------------------------------------------------|

e--------------------------------------------------------------------\-|
B----------------------------------------------------------------------|
G---------------12-----------------------------------------------------|
D10h12-12-12/15----12-12p10-10/8-8-------------------------------------|
A----------------------------------------------------------------------|
d----------------------------------------------------------------------|

Hope you have many hours of enjoyment from this. Be on the lookout for more Starflyer and a whole mess o' 
SPOOOOOOOON!
				-G. Michael Reynolds-
Comments