Starflyer 59 - Blue Collar Love Chords & Tabs

 

Blue Collar Love Chords & Tabs

Starflyer 59 Chords & Tabs

Version: 1 Type: Tab 0 ratings
1 star 2 stars 3 stars 4 stars 5 stars
comments

Blue Collar Love Tab

   
-------------------------------------------------------------------------------
			Blue collar love - Starflyer 59
-------------------------------------------------------------------------------
Tabbed by: Eva unit one (Hugo Amarales)
Email:alberamaral@aol.com

Tuning: Drop D (DADGBE)

E|---------------------------------------------------------------------------|
B|---------------------------------------------------------------------------|
G|---------------------------------------------------------------------------|
D|--0-0-5-3-0-0-8-8-8--------------------------------------------------------| X5
A|--0-0-5-3-0-0-8-8-8--------------------------------------------------------|
D|--0-0-5-3-0-0-8-8-8--------------------------------------------------------|

VERSE
    
E|---------------------------------------------------------------------------|
B|---------------------------------------------------------------------------|
G|---------------------------------------------------------------------------|
D|--7-7-7-7-7-7-7--10-10-10-10-10-10-10--5-5-5-5-5-5-5--3-3-3-3-3-3-3--------|
A|--5-5-5-5-5-5-5---8--8--8--8--8--8--8--3-3-3-3-3-3-3--1-1-1-1-1-1-1--------|
D|---------------------------------------------------------------------------|

E|---------------------------------------------------------------------------|
B|---------------------------------------------------------------------------|
G|---------------------------------------------------------------------------|
D|--7-7-7-7-7-7-7--10-10-10-10-10-10-10--5-5-5-5-5-5-5--3-3-3-3-3-3-3-3------|
A|--5-5-5-5-5-5-5---8--8--8--8--8--8--8--3-3-3-3-3-3-3--1-1-1-1-1-1-1-1------|
D|---------------------------------------------------------------------------|

E|---------------------------------------------------------------------------|
B|---------------------------------------------------------------------------|
G|---------------------------------------------------------------------------|
D|--3-3-3-3-3-3-3------------------------------------------------------------|
A|--1-1-1-1-1-1-1------------------------------------------------------------|
D|---------------------------------------------------------------------------|

Verse 2

E|---------------------------------------------------------------------------|
B|---------------------------------------------------------------------------|
G|---------------------------------------------------------------------------|
D|--8-8-8-8-8-8-8-8--1-1-1-1-1-1-1-1-----------------------------------------| X3
A|--8-8-8-8-8-8-8-8--1-1-1-1-1-1-1-1-----------------------------------------|
D|--8-8-8-8-8-8-8-8--1-1-1-1-1-1-1-1-----------------------------------------|

The fourth time around he does it kind of different.
[ Tab from: http://www.guitartabs.cc/tabs/s/starflyer_59/blue_collar_love_tab.html ]
E|---------------------------------------------------------------------------|
B|---------------------------------------------------------------------------|
G|---------------------------------------------------------------------------|
D|--8-8-8-8-8-8-8-8--1-1-1-1-1-1-1-1--11-11-11-11-11-11-11-11----------------|
A|--8-8-8-8-8-8-8-8--1-1-1-1-1-1-1-1--11-11-11-11-11-11-11-11----------------|
D|--8-8-8-8-8-8-8-8--1-1-1-1-1-1-1-1--11-11-11-11-11-11-11-11----------------|

Chorus

E|---------------------------------------------------------------------------|
B|---------------------------------------------------------------------------|
G|---------------------------------------------------------------------------|
D|--0-0-5-3-0-0-8-8-8--------------------------------------------------------| X4
A|--0-0-5-3-0-0-8-8-8--------------------------------------------------------|
D|--0-0-5-3-0-0-8-8-8--------------------------------------------------------|

Verse 2

E|---------------------------------------------------------------------------|
B|---------------------------------------------------------------------------|
G|---------------------------------------------------------------------------|
D|--8-8-8-8-8-8-8-8--1-1-1-1-1-1-1-1-----------------------------------------| X3
A|--8-8-8-8-8-8-8-8--1-1-1-1-1-1-1-1-----------------------------------------|
D|--8-8-8-8-8-8-8-8--1-1-1-1-1-1-1-1-----------------------------------------|

E|---------------------------------------------------------------------------|
B|---------------------------------------------------------------------------|
G|---------------------------------------------------------------------------|
D|--8-8-8-8-8-8-8-8--1-1-1-1-1-1-1-1--11-11-11-11-11-11-11-11----------------|
A|--8-8-8-8-8-8-8-8--1-1-1-1-1-1-1-1--11-11-11-11-11-11-11-11----------------|
D|--8-8-8-8-8-8-8-8--1-1-1-1-1-1-1-1--11-11-11-11-11-11-11-11----------------|

Outro
	Do the chorus except this the last time around.
E|---------------------------------------------------------------------------|
B|---------------------------------------------------------------------------|
G|---------------------------------------------------------------------------|
D|--0-0-5-3-0-0-8-8-8--------------------------------------------------------| X4
A|--0-0-5-3-0-0-8-8-8--------------------------------------------------------|
D|--0-0-5-3-0-0-8-8-8--------------------------------------------------------|

E|---------------------------------------------------------------------------|
B|---------------------------------------------------------------------------|
G|---------------------------------------------------------------------------|
D|--0-0-5-3-0-0-8-8-8--0-----------------------------------------------------|
A|--0-0-5-3-0-0-8-8-8--0-----------------------------------------------------|
D|--0-0-5-3-0-0-8-8-8--0-----------------------------------------------------|

| / Slide up
| \ Slide down
| H hammer-on
| P pull-off
| ~ Vibrato
| + Harmonic
|  X   Mute note 

Lyrics

She has taken it all
The feel
To fend for things you're just not

Now you're turning blue
The time I spent with you...

She has taken it all
The feel
To fend for things you're just not

Now you're turning blue
The time I spent with you...

===============================================================================
Comments