Star Phonley - I Am Small Chords & Tabs

 

I Am Small Chords & Tabs

Star Phonley Chords & Tabs

Version: 1 Type: Tab 0 ratings
1 star 2 stars 3 stars 4 stars 5 stars
comments

I Am Small Tab

#----------------------------------PLEASE NOTE---------------------------------#
#This file is the author's own work and represents their interpretation of the #
#song. You may only use this file for private study, scholarship, or research. #
#------------------------------------------------------------------------------#
SONG: I AM SMALL
ARTIST: STAR PHONLEY(http://www.mp3.com.au/artist.asp?id=19110)
ALBUM: IM NOT SUPERMAN

Guitar 1: Lead Guitar

VERSE: Repeat throughout
e ---------------------------------------------------------------------------|
B ---------------------------------------------------------------------------|
G ---------------------------------------------------4----4---4----4---------|
D ----9-----9---9-----9-----5-----5---5----5----5-5-5-5-5-5-5-5--------------|
A ---7-7--7-7-7-7--7-7---3-3--3-3-3-3-3-3--3---3----3---3--------------------|
E --0----0----0----0------3----3----3----3-----------------------------------|


PRE-CHORUS:
e ---------------------------------------------------------------------------|
B ----8----8----8----8--------8------8------8----8---8----8------------------|
G ---0-0-0-0-0--0-0-0-----0--0---0--0---0-0-0-0-0-0-0-0----------------------|
D --9---9----9----9------10-----10-------7---7----5---5----------------------|
A ---------------------------------------------------------------------------|
E ---------------------------------------------------------------------------|

[ Tab from: http://www.guitartabs.cc/tabs/s/star_phonley/i_am_small_tab.html ]
CHORUS:
e ---------------------------------------------------------------------------|
B ---------------------------------------------------------------------------|
G --16---5---12---7---16---5---12---14---------------------------------------|
D ---x---x----x----x----x---x----x-----x-------------------------------------|
A --14---3---10---5---14---3---10---12---------------------------------------|
E ---------------------------------------------------------------------------|

VERSE: Repeat throughout
e ---------------------------------------------------------------------------|
B ---------------------------------------------------------------------------|
G ---------------------------------------------------4----4---4----4---------|
D ----9-----9---9-----9-----5-----5---5----5----5-5-5-5-5-5-5-5--------------|
A ---7-7--7-7-7-7--7-7---3-3--3-3-3-3-3-3--3---3----3---3--------------------|
E --0----0----0----0------3----3----3----3-----------------------------------|

PRE-CHORUS:
e ---------------------------------------------------------------------------|
B ----8----8----8----8--------8------8------8----8---8----8------------------|
G ---0-0-0-0-0--0-0-0-----0--0---0--0---0-0-0-0-0-0-0-0----------------------|
D --9---9----9----9------10-----10-------7---7----5---5----------------------|
A ---------------------------------------------------------------------------|
E ---------------------------------------------------------------------------|


CHORUS:
e ---------------------------------------------------------------------------|
B ---------------------------------------------------------------------------|
G --16---5---12---7---16---5---12---14---------------------------------------|
D ---x---x----x----x----x---x----x-----x-------------------------------------|
A --14---3---10---5---14---3---10---12---------------------------------------|
E ---------------------------------------------------------------------------|


NAME: Weak Lee    DATE: Wednesday 1st December 2004
Comments