Stapled - Lung Smoke Chords & Tabs

 

Lung Smoke Chords & Tabs

Stapled Chords & Tabs

Version: 2 Type: Tab 0 ratings
1 star 2 stars 3 stars 4 stars 5 stars
comments

Lung Smoke Tab

Song: lung_smoke
Artist: staPled------AnDy---guitar 1-----|vocals-whispers(screams)
                                JoRy-----|guitar 2 -Vocals(screams)
                                 ChAnCe-BASS-whispers(laughs)
                                   BrAnDon---DRUms (plays drums)


Sansamp PSA-1, A.R.T 351 equalizer, Nady geq231...
                                         best used for this song.
          this song is about a minute long...
INTRO
            Guitar 1
D|----------|------------------------------10---------------------------------18-------|
A|----------|----------------------------9-------------------------17--15-15-----------|
F|--------1-|--------------------------8-----------------------------------------------|
C|-----1----|2-------4h6-------------7------12-----------------------------------------|
G|---1------|--2-----4h5p4h5p4h5p4-----------------------1p0---------------------------|
C|-1--------|----3----------------------------------2----------------------------------|
 ||||clean|||--heavy-for the rest of the song
[ Tab from: http://www.guitartabs.cc/tabs/s/stapled/lung_smoke_tab_ver_2.html ]
            Guitar 2-always heavy
D|-------------------------------------------------------------------------------------|
A|-------------------------------------------------------------------------------------|
F|-------------------------------------------------------------------------------------|
C|---2--0-0-4----2333x---2333444555565657------3-3-3---555--2-2-0-0-09-0-0-0-0-0-9-0-0-|
G|---2--x-x-4----23x34---2xxxxxxx55565657------3-3-3---564--2-2-0-0-09-0-0-0-0-0-9-0-0-|
C|---2--0-0-4----23334---2333444555565657------3-3-3---555--2-2-0-0-09-0-0-0-0-0-9-0-0-|
        VERSE
   Guitar 1-ANDY
            (CRAAAAAAZZZZZZZYYYYYYYYYYYYYY)  AAAAAAAAAAAAAAAAAAAAHHHHHHHHHHHHH!!!!!!
D|-------------------------------------------------------------------------------------|
A|------------------------------------------------------------------------------------ |
F|-------------------------------------------------------------------------------------|   x4
C|---2-2-2-2-2-2--222--0-0-0-0-0-0--000-----7878787878787-9-787878787-9-0-787878787--9-|
G|---2-2-2-2-2-2--222--0-0-0-0-0-0--000-----7878787878787-9-787878787-9-0-787878787--9-|
C|---2-2-2-2-2-2--222--0-0-0-0-0-0--000-----7878787878787-9-787878787-9-0-787878787--9-|

             Guitar 2-JORY
 (AAAAAAAAAAAAAAAAAAAAAAAAAAAAAAAAAAHHHHHHHHHHHHHHHHHHHHHHHHHHHHHHHHHHHHHHHHHHHHH!!!!!)
D|-------------------------------------------------------------------------------------|
A|-------------------------------------------------------------------------------------|
F|-------------------------------------------------------------------------------------|the 1s are 1s... 
11s
C|-------------------------------------------------------------------------------------|
G|-------------------------------------------------------------------------------------|
C|-0-0-0-0-0-0-0-----0-0-0-0-0-0---0--0-0--0-1-1-1-1-111111111212122123331221331000000-|<1st   2nd   and 
frets
VERSE
          Bass -chance                           (MUUUAAAAAHAHAHHAHAHHAHAHAHAHAHAHAHAA)
F|-------------------------------------------------------------------------------------|   x4
C|-------------------------------------------------------------------------------------|
G|-------------------------------------------------------------------------------------|
C|-0-2-3---0-0-0-----0-0-0-0-0-0---0--0-0--0-1-0-1-0-1-0-1-01-0-1-0--------------------|


  Guitar 1-any effect that sounds wierd... mix effects even
D|-------------------------------------------------------------------------------------|
A|-------------------------------------------------------------------------------------|
F|-------------------------------------------------------------------------------------|   x4
C|-just go crazy..play almost every fret on every string... as fast as you can---------|
G|-------------------------------------------------------------------------------------|
C|-------------------------------------------------------------------------------------|
EVERYTHING IS IN ORDER......                     END
Comments