Stapled - Eat Chords & Tabs

 

Eat Chords & Tabs

Stapled Chords & Tabs

Version: 1 Type: Tab 0 ratings
1 star 2 stars 3 stars 4 stars 5 stars
comments

Eat Tab

Song Eat
Artist: staPled------AnDy---guitar 1-vocals-whispers
                                JoRy----guitar 2 -Vocals(2)
                                 ChAnCe-BASS-whispers
                                   BrAnDon---DRUms 
                                 

Sansamp PSA-1 best used for this song.

INTRO
            Guitar 1- clean-chop suey kinda sound
D|--------------------------------------------------------------------------------------------|
A|--------------------------------------------------------------------------------------------|
F|---10---10-10-10---10-10/12----12-12-12\9--9-9-9---9-----9-9--------------------------------|   x2
C|----8----8--8---8---8--8/10----10-10-10\7--7-7-7---7-----7-7--------------------------------|
G|--------------------------------------------------------------------------------------------|
C|--------------------------------------------------------------------------------------------|

[ Tab from: http://www.guitartabs.cc/tabs/s/stapled/eat_tab.html ]
            Guitar 2-light distortion-light palm mute
D|-------------------------------------------------------------------------------------|------|
A|-------------------------------------------------------------------------------------|------|
F|------10---10---10---10---10---10/--12----12---12---12\--9----9--9--9----9----9--9---|--9---|   x2
C|----8----8----8----8----8----8--/-10----10---10---10--\7----7--7--7----7----7--7-----|------|
G|-------------------------------------------------------------------------------------|------|
C|-------------------------------------------------------------------------------------|------|
                                                                                                                              ^
                                                                                                                     HEAVY distortion
CHORUS
            Guitar 1- Heavy distortion
D|--------------------------------------------------------------------------------------------|
A|------------------------------------------------------------------------------------ -------|
F|--------------------------------------------------------------------------------------------|   x4
C|--------- -0---5---0-------------0---8---7---0----------------------------------------------|
G|---8---7---0---5---0---0---------0---8---7---0----10----------------------------------------|
C|---8---7---0---5---0---0-7---8---0---8---7---0----10----------------------------------------|


Guitar 2- Heavy distortion
D|-------------------------------------------------------------------------------------------|
A|-------------------------------------------------------------------------------------------|
F|-------------------------------------------------------------------------------------------|   x3 start on 2nd time 
C|-------------------------------------------------------------------------------------------|      guitar1 starts .
G|-------------------------------------------------------------------------------------------|         chorus.
C|---8---7---0---5---0---0-7---8---0---8---7---0----10---------------------------------------|

VERSE
          Bass
F|--------------------------------------------------------------------------------------------|   x4
C|--------------------------------------------------------------------------------------------|
G|--------------------------------------------------------------------------------------------|
C|---12--11---0--8--0---------3---2--0---1----0-----------------------------------------------|

         


  Guitar 1- heavy distortion- after bass
D|--------------------------------------------------------------------------------------|
A|--------------------------------------------------------------------------------------|
F|--------------------------------------------------------------------------------------|   x4
C|------------0--8--0---------3---2--0---1----0-----------------------------------------|  
Comments