Standing Ground - Alone Chords & Tabs

 

Alone Chords & Tabs

Standing Ground Chords & Tabs

Version: 1 Type: Tab 0 ratings
1 star 2 stars 3 stars 4 stars 5 stars
comments

Alone Tab

Standard Tuning
This is 99.9% correct. I saw them live and listened to them and
i figure out the WHOLE SONG!!!!!! It's really awesome.Enjoy!!!!!

Key:
/ = slide up
\ = slide down
X = mute


Intro (Clean)
e|------------------------0-----------------------------------
b|--------------------------0---------------------------------
g|--------------------0--------------------------0-----0------
d|------0----0-----0----0----------0-----0-----0---0-----0----
a|----2---2----2/3---------------2---2-----2/3-------2-----0--
E|--0------0-------------------0-------0----------------------

e|------------------------------------------------------------
b|------------------------------------------------------------
g|--------------------0---0----------------------0-----0------
d|------0----0-----0----0---0------0-----0-----0---0-----0----
a|----2---2----2/3---------------2---2-----2/3-------2-----0--
E|--0------0-------------------0-------0----------------------

Verse 1 (Clean)
e|------------------------0----------------------------------|
b|--------------------------0--------------------------------|
g|--------------------0--------------------------0-----0-----|
d|------0----0-----0----0----------0-----0-----0---0-----0---|
a|----2---2----2/3---------------2---2-----2/3-------2-----0-|
E|--0------0-------------------0-------0---------------------|

e|------------------------------------------------------------|
b|------------------------------------------------------------|
g|--------------------0---0----------------------0-----0------|
d|------0----0-----0----0---0------0-----0-----0---0-----0----|
a|----2---2----2/3---------------2---2-----2/3-------2-----0--|
E|--0------0-------------------0-------0----------------------|

Chorus 1 (Distortion)
e|---------------------------------------------------|
b|---------------------------------------------------|
g|---------------------------5-5-5-5---5-5-5-5---5-5-|
d|--2-2-2-2---2-2-2-2---2-2--5-5-5-5---5-5-5-5---5-5-|
a|--2-2-2-2---2-2-2-2---2-2--3-3-3-3---3-3-3-3---3-3-|
E|--0-0-0-0---0-0-0-0---0-0--------------------------|

e|-------------------------------------------------|
b|-------------------------------------------------|
g|---------------------------5-5-5-5--7-7-7--------|
d|--2-2-2-2---2-2-2-2---2-2--5-5-5-5--7-7-7--------|
a|--2-2-2-2---2-2-2-2---2-2--3-3-3-3--5-5-5---/13\-|
E|--0-0-0-0---0-0-0-0---0-0------------------------|

e|---------------------------------------------------|
b|---------------------------------------------------|
g|---------------------------5-5-5-5---5-5-5-5---5-5-|
d|--2-2-2-2---2-2-2-2---2-2--5-5-5-5---5-5-5-5---5-5-|
a|--2-2-2-2---2-2-2-2---2-2--3-3-3-3---3-3-3-3---3-3-|
E|--0-0-0-0---0-0-0-0---0-0--------------------------|

e|-------------------------------------------------|
b|-------------------------------------------------|
g|---------------------------5-5-5-5--7-7-7--------|
d|--2-2-2-2---2-2-2-2---2-2--5-5-5-5--7-7-7--------|
a|--2-2-2-2---2-2-2-2---2-2--3-3-3-3--5-5-5---/13\-|
E|--0-0-0-0---0-0-0-0---0-0------------------------|

Verse 2 (Clean)
e|------------------------0----------------------------------|
b|--------------------------0--------------------------------|
g|--------------------0--------------------------0-----0-----|
d|------0----0-----0----0----------0-----0-----0---0-----0---|
a|----2---2----2/3---------------2---2-----2/3-------2-----0-|
E|--0------0-------------------0-------0---------------------|

e|------------------------------------------------------------|
b|------------------------------------------------------------|
g|--------------------0---0----------------------0-----0------|
d|------0----0-----0----0---0------0-----0-----0---0-----0----|
a|----2---2----2/3---------------2---2-----2/3-------2-----0--|
E|--0------0-------------------0-------0----------------------|

Chorus 2 (Distortion)
e|---------------------------------------------------|
b|---------------------------------------------------|
g|---------------------------5-5-5-5---5-5-5-5---5-5-|
d|--2-2-2-2---2-2-2-2---2-2--5-5-5-5---5-5-5-5---5-5-|
a|--2-2-2-2---2-2-2-2---2-2--3-3-3-3---3-3-3-3---3-3-|
E|--0-0-0-0---0-0-0-0---0-0--------------------------|
[ Tab from: http://www.guitartabs.cc/tabs/s/standing_ground/alone_tab.html ]
e|-------------------------------------------------|
b|-------------------------------------------------|
g|---------------------------5-5-5-5--7-7-7--------|
d|--2-2-2-2---2-2-2-2---2-2--5-5-5-5--7-7-7--------|
a|--2-2-2-2---2-2-2-2---2-2--3-3-3-3--5-5-5---/13\-|
E|--0-0-0-0---0-0-0-0---0-0------------------------|

e|---------------------------------------------------|
b|---------------------------------------------------|
g|---------------------------5-5-5-5---5-5-5-5---5-5-|
d|--2-2-2-2---2-2-2-2---2-2--5-5-5-5---5-5-5-5---5-5-|
a|--2-2-2-2---2-2-2-2---2-2--3-3-3-3---3-3-3-3---3-3-|
E|--0-0-0-0---0-0-0-0---0-0--------------------------|

e|-------------------------------------------------|
b|-------------------------------------------------|
g|---------------------------5-5-5-5--7-7-7--------|
d|--2-2-2-2---2-2-2-2---2-2--5-5-5-5--7-7-7--------|
a|--2-2-2-2---2-2-2-2---2-2--3-3-3-3--5-5-5---/13\-|
E|--0-0-0-0---0-0-0-0---0-0------------------------|

e|---------------------------------------------------|
b|---------------------------------------------------|
g|---------------------------5-5-5-5---5-5-5-5---5-5-|
d|--2-2-2-2---2-2-2-2---2-2--5-5-5-5---5-5-5-5---5-5-|
a|--2-2-2-2---2-2-2-2---2-2--3-3-3-3---3-3-3-3---3-3-|
E|--0-0-0-0---0-0-0-0---0-0--------------------------|

e|-------------------------------------------------|
b|-------------------------------------------------|
g|---------------------------5-5-5-5--7-7-7--------|
d|--2-2-2-2---2-2-2-2---2-2--5-5-5-5--7-7-7--------|
a|--2-2-2-2---2-2-2-2---2-2--3-3-3-3--5-5-5---/13\-|
E|--0-0-0-0---0-0-0-0---0-0------------------------|

e|---------------------------------------------------|
b|---------------------------------------------------|
g|---------------------------5-5-5-5---5-5-5-5---5-5-|
d|--2-2-2-2---2-2-2-2---2-2--5-5-5-5---5-5-5-5---5-5-|
a|--2-2-2-2---2-2-2-2---2-2--3-3-3-3---3-3-3-3---3-3-|
E|--0-0-0-0---0-0-0-0---0-0--------------------------|

e|-------------------------------------------------|
b|-------------------------------------------------|
g|---------------------------5-5-5-5--7-7-7--------|
d|--2-2-2-2---2-2-2-2---2-2--5-5-5-5--7-7-7--------|
a|--2-2-2-2---2-2-2-2---2-2--3-3-3-3--5-5-5---/13\-|
E|--0-0-0-0---0-0-0-0---0-0------------------------|

Bridge (Distortion)
e|--------------------------------------------|
b|--------------------------------------------|
g|--4------5------4------5-5-5-5--7-7-7-------|
d|-----------------------5-5-5-5--7-7-7--/13\-|
a|--2------3------2------3-3-3-3--5-5-5-------|
E|--------------------------------------------|

Chorus 3 (Distortion)
e|---------------------------------------------------|
b|---------------------------------------------------|
g|---------------------------5-5-5-5---5-5-5-5---5-5-|
d|--2-2-2-2---2-2-2-2---2-2--5-5-5-5---5-5-5-5---5-5-|
a|--2-2-2-2---2-2-2-2---2-2--3-3-3-3---3-3-3-3---3-3-|
E|--0-0-0-0---0-0-0-0---0-0--------------------------|

e|-------------------------------------------------|
b|-------------------------------------------------|
g|---------------------------5-5-5-5--7-7-7--------|
d|--2-2-2-2---2-2-2-2---2-2--5-5-5-5--7-7-7--------|
a|--2-2-2-2---2-2-2-2---2-2--3-3-3-3--5-5-5---/13\-|
E|--0-0-0-0---0-0-0-0---0-0------------------------|

e|---------------------------------------------------|
b|---------------------------------------------------|
g|---------------------------5-5-5-5---5-5-5-5---5-5-|
d|--2-2-2-2---2-2-2-2---2-2--5-5-5-5---5-5-5-5---5-5-|
a|--2-2-2-2---2-2-2-2---2-2--3-3-3-3---3-3-3-3---3-3-|
E|--0-0-0-0---0-0-0-0---0-0--------------------------|

e|-------------------------------------------------|
b|-------------------------------------------------|
g|---------------------------5-5-5-5--7-7-7--------|
d|--2-2-2-2---2-2-2-2---2-2--5-5-5-5--7-7-7--------|
a|--2-2-2-2---2-2-2-2---2-2--3-3-3-3--5-5-5---/13\-|
E|--0-0-0-0---0-0-0-0---0-0------------------------|

Outro (Distortion)
e|-----------------------------------------------------------------|
b|-----------------------------------------------------------------|
g|-----------------------------------------------------------------|
d|--2-2---2-2----2-2-XX-2-2---2-2-XX-2-2----5-5-5---7-7-7--------2-|
a|--2-2---2-2----2-2-XX-2-2---2-2-XX-2-2----5-5-5---7-7-7--------2-|
E|--0-0---0-0----0-0-XX-0-0---0-0-XX-0-0----3-3-3---5-5-5---/13\-0-|

If you have any questions or comments e-mail me at vipergts_84@msn.com
Comments