Stampin Ground - Outside Looking In Chords & Tabs

 

Outside Looking In Chords & Tabs

Stampin Ground Chords & Tabs

Version: 1 Type: Tab 0 ratings
1 star 2 stars 3 stars 4 stars 5 stars
comments

Outside Looking In Tab

Band: Stampin' Ground	
Song: Outside Looking In
Album: Carved From Empty Wounds
Tuning: Standard
Transcribed by Mark Kerry
e-mail: markkerry_uk@yahoo.co.uk

key

pm	palm mute
h	hammer on	
()	let ring


intro
  guitar 1&2
|--------------------------------------------------------------|
|--------------------------------------------------------------|
|--------------------------------------------------------------|
|--------------------------------------------------------------|
|------------------------------------------------3-2-3-6--5--3-|
|------------------------------------------------1-0-1-4--3--1-|
pm                                               - - - -  -  -

  guitar 1
|--------------------------------------------------------------|
|--------------------------------------------------------------|
|--------------------------------------------------------------|
|--------------------------------------------------------------|
|-----------------------6--5--3------------------3-2-3-6--5--3-|
|-1p0-0-0-0-0-0-0-1p0-0-4--3--1--1p0-0-0-0-0-0-0-1-0-1-4--3--1-|
|pm   - - - - - -     -              - - - - - - - - - -  -  - |
| guitar 2						       |
|--------------------------------------------------------------|
|--------------------------------------------------------------|
|--------------------------------------------------------------|
|--------------------------------------------------------------|
|------------------------------------------------3-2-3-6--5--3-|
|------------------------------------------------1-0-1-4--3--1-|
 pm                                              - - - -  -  - 

  guitar 1
|--------------------------------------------------------------|
|--------------------------------------------------------------|
|--------------------------------------------------------------|
|--------------------------------------------------------------|
|-----------------------6--5--3------------------3-2-3-6--5--3-|
|-1p0-0-0-0-0-0-0-1p0-0-4--3--1--1p0-0-0-0-0-0-0-1-0-1-4--3--1-|
|pm   - - - - - -     -              - - - - - - - - - -  -  - |
| guitar 2						       |
|--------------------------------------------------------------|
|--------------------------------------------------------------|
|--------------------------------------------------------------|
|--------------------------------------------------------------|
|-3-2-------------3-2------------3-2-----(2)-----3-2-3-6--5--3-|
|-1-0-------------1-0------------1-0-----(0)-----1-0-1-4--3--1-|
 pm                                              - - - -  -  - 

pause

verse 1
  guitar 1&2
|--------------------------------------------------------------|
|--------------------------------------------------------------|
|--------------------------------------------------------------|
|--------------------------------------------------------------|
|-----------------------6--5--3------------------------6--5--3-|
|-1p0-0-0-0-0-0-0-1p0-0-4--3--1--1p0-0-0-0-0-0-0-1p0-0-4--3--1-|
pm    - - - - - -     -              - - - - - -     -     

  guitar 1&2
|--------------------------------------------------------------|
|--------------------------------------------------------------|
|--------------------------------------------------------------|
|------------------------------------------------6-6-6-6-3-3-3-|
|-----------------------6--5--3------------------4-4-4-4-1-1-1-|
|-1p0-0-0-0-0-0-0-1p0-0-4--3--1--1p0-0-0-0-0-0-0-4-4-4-4-1-1-1-|
pm    - - - - - -     -              - - - - - -

  guitar 1&2
|--------------------------------------------------------------|
|--------------------------------------------------------------|
|--------------------------------------------------------------|
|--------------------------------------------------------------|
|-----------------------6--5--3------------------------6--5--3-|
|-1p0-0-0-0-0-0-0-1p0-0-4--3--1--1p0-0-0-0-0-0-0-1p0-0-4--3--1-|
pm    - - - - - -     -              - - - - - -     -       

  guitar 1&2
|--------------------------------------------------------------|
|--------------------------------------------------------------|
|--------------------------------------------------------------|
|--------------------------------------------------------------|
|-----------------------6--5--3------------------2-------------|
|-1p0-0-0-0-0-0-0-1p0-0-4--3--1--1p0-0-0-0-0-0-0-0-------------|
pm    - - - - - -     -              - - - - - -

  guitar 1&2
|--------------------------------------------------------------|
|--------------------------------------------------------------|
|--------------------------------------------------------------|
|--------------------------------------------------------------|
|-----------------------6--5--3------------------------6--5--3-|
|-1p0-0-0-0-0-0-0-1p0-0-4--3--1--1p0-0-0-0-0-0-0-1p0-0-4--3--1-|
pm    - - - - - -     -              - - - - - -     -      

  guitar 1&2
|--------------------------------------------------------------|
|--------------------------------------------------------------|
|--------------------------------------------------------------|
|------------------------------------------------6-6-6-6-3-3-3-|
|-----------------------6--5--3------------------4-4-4-4-1-1-1-|
|-1p0-0-0-0-0-0-0-1p0-0-4--3--1--1p0-0-0-0-0-0-0-4-4-4-4-1-1-1-|
pm    - - - - - -     -              - - - - - -

  guitar 1&2
|--------------------------------------------------------------|
|--------------------------------------------------------------|
|--------------------------------------------------------------|
|--------------------------------------------------------------|
|-----------------------6--5--3------------------------6--5--3-|
|-1p0-0-0-0-0-0-0-1p0-0-4--3--1--1p0-0-0-0-0-0-0-1p0-0-4--3--1-|
pm    - - - - - -     -              - - - - - -     -       

  guitar 1&2
|--------------------------------------------------------------|
|--------------------------------------------------------------|
|--------------------------------------------------------------|
|--------------------------------------------------------------|
|-----------------------6--5--3------------------------6--5--3-|
|-1p0-0-0-0-0-0-0-1p0-0-4--3--1--1p0-0-0-0-0-0-0-1p0-0-4--3--1-|
pm    - - - - - -     -              - - - - - -     -


chorus
  guitar 1 x2
|---------------------------------------|
|---------------------------------------|
|---------------------------------------|
|---------------------------------------|
|-5--5-5--6--6-6--3--3-3--2--2-2--3---6-|
|-3--3-3--4--4-4--1--1-1--0--0-0--1-0-4-|
|pm  - -     - -     - -     - -    -   | 
|  guitar 2				|
|---------------------------------------|
|---------------------------------------|
|---------------------------------------|
|---------------------------------------|
|---------------------------------3---6-|
|---------------------------------1-0-4-|
pm                                  -    


  guitar 1&2 x2
|---------------------------------------|
|---------------------------------------|
|---------------------------------------|
|---------------------------------------|
|-5--5-5--6--6-6--3--3-3--2--2-2--3---6-|
|-3--3-3--4--4-4--1--1-1--0--0-0--1-0-4-|
pm   - -     - -     - -     - -    -   

pause

  guitar 1&2 x8
|---------------------------------------|
|---------------------------------------|
|---------------------------------------|
|---------------------------------------|
|-5--5-5--6--6-6--3--3-3--2--2-2--3---6-|
|-3--3-3--4--4-4--1--1-1--0--0-0--1-0-4-|
pm   - -     - -     - -     - -    -   
[ Tab from: http://www.guitartabs.cc/tabs/s/stampin_ground/outside_looking_in_tab.html ]
  guitar 1&2
|--------------------------------------------------------------|
|--------------------------------------------------------------|
|--------------------------------------------------------------|
|--------------------------------------------------------------|
|------------------------------------------------3-2-3-6--5--3-|
|------------------------------------------------1-0-1-4--3--1-|
 pm                                              - - - -  -  - 

verse 2
  guitar 1&2
|--------------------------------------------------------------|
|--------------------------------------------------------------|
|--------------------------------------------------------------|
|--------------------------------------------------------------|
|-----------------------6--5--3------------------------6--5--3-|
|-1p0-0-0-0-0-0-0-1p0-0-4--3--1--1p0-0-0-0-0-0-0-1p0-0-4--3--1-|
pm    - - - - - -     -              - - - - - -     -      

  guitar 1&2
|--------------------------------------------------------------|
|--------------------------------------------------------------|
|--------------------------------------------------------------|
|------------------------------------------------6-6-6-6-3-3-3-|
|-----------------------6--5--3------------------4-4-4-4-1-1-1-|
|-1p0-0-0-0-0-0-0-1p0-0-4--3--1--1p0-0-0-0-0-0-0-4-4-4-4-1-1-1-|
pm    - - - - - -     -              - - - - - -

  guitar 1&2
|--------------------------------------------------------------|
|--------------------------------------------------------------|
|--------------------------------------------------------------|
|--------------------------------------------------------------|
|-----------------------6--5--3------------------------6--5--3-|
|-1p0-0-0-0-0-0-0-1p0-0-4--3--1--1p0-0-0-0-0-0-0-1p0-0-4--3--1-|
pm    - - - - - -     -              - - - - - -     -       

  guitar 1&2
|--------------------------------------------------------------|
|--------------------------------------------------------------|
|--------------------------------------------------------------|
|--------------------------------------------------------------|
|-----------------------6--5--3------------------2-------------|
|-1p0-0-0-0-0-0-0-1p0-0-4--3--1--1p0-0-0-0-0-0-0-0-------------|
pm    - - - - - -     -              - - - - - -

  guitar 1&2
|--------------------------------------------------------------|
|--------------------------------------------------------------|
|--------------------------------------------------------------|
|--------------------------------------------------------------|
|-----------------------6--5--3------------------------6--5--3-|
|-1p0-0-0-0-0-0-0-1p0-0-4--3--1--1p0-0-0-0-0-0-0-1p0-0-4--3--1-|
pm    - - - - - -     -              - - - - - -     -      

  guitar 1&2
|--------------------------------------------------------------|
|--------------------------------------------------------------|
|--------------------------------------------------------------|
|------------------------------------------------6-6-6-6-3-3-3-|
|-----------------------6--5--3------------------4-4-4-4-1-1-1-|
|-1p0-0-0-0-0-0-0-1p0-0-4--3--1--1p0-0-0-0-0-0-0-4-4-4-4-1-1-1-|
pm    - - - - - -     -              - - - - - -

  guitar 1&2
|--------------------------------------------------------------|
|--------------------------------------------------------------|
|--------------------------------------------------------------|
|--------------------------------------------------------------|
|-----------------------6--5--3------------------------6--5--3-|
|-1p0-0-0-0-0-0-0-1p0-0-4--3--1--1p0-0-0-0-0-0-0-1p0-0-4--3--1-|
pm    - - - - - -     -              - - - - - -     -     

  guitar 1&2
|--------------------------------------------------------------|
|--------------------------------------------------------------|
|--------------------------------------------------------------|
|--------------------------------------------------------------|
|-----------------------6--5--3------------------------6--5--3-|
|-1p0-0-0-0-0-0-0-1p0-0-4--3--1--1p0-0-0-0-0-0-0-1p0-0-4--3--1-|
pm    - - - - - -     -              - - - - - -     -

chorus 2
  guitar 1 x2
|---------------------------------------|
|---------------------------------------|
|---------------------------------------|
|---------------------------------------|
|-5--5-5--6--6-6--3--3-3--2--2-2--3---6-|
|-3--3-3--4--4-4--1--1-1--0--0-0--1-0-4-|
|pm  - -     - -     - -     - -    -   |
|  guitar 2				|
|---------------------------------------|
|---------------------------------------|
|---------------------------------------|
|---------------------------------------|
|---------------------------------3---6-|
|---------------------------------1-0-4-|
pm                                  -    

  guitar 1&2
|---------------------------------------|
|---------------------------------------|
|---------------------------------------|
|---------------------------------------|
|-5--5-5--6--6-6--3--3-3--2--2-2--3---6-|
|-3--3-3--4--4-4--1--1-1--0--0-0--1-0-4-|
pm   - -     - -     - -     - -    -      

pause

  guitar 1&2 x8
|---------------------------------------|
|---------------------------------------|
|---------------------------------------|
|---------------------------------------|
|-5--5-5--6--6-6--3--3-3--2--2-2--3---6-|
|-3--3-3--4--4-4--1--1-1--0--0-0--1-0-4-|
pm   - -     - -     - -     - -    -      


bridge
   guitar 1
|----------------------------------------------------|
|----------------------------------------------------|
|----------------------------------------------------|
|----------------------------------------------------|
|----------------------------------------------------|
|-11111110-11111110-0-1110-11111110-11111110-0-1110--|
|pm------- -------- - ---- -------- -------- - ----  |
|						     |
|----------------------------------------------------|
|----------------------------------------------------|
|----------------------------------------------------|
|----------------------------------------------------|
|----------------------------------------------------|
|-11111110-11111110-0-1110-11111110-11111110-0-1110--|
|pm------- -------- - ---- -------- -------- - ----  |
|   guitar 2					     |
|----------------------------------------------------|
|----------------------------------------------------|
|----------------------------------------------------|
|----------------------------------------------------|
|-6-----------------5----------------3---------------|
|-4-----------------3----------------1---------------|
    
  guitar 1&2 x2
|----------------------------------------------------|
|----------------------------------------------------|
|----------------------------------------------------|
|----------------------------------------------------|
|----------------------------------------------------|
|-11111110-11111110-0-1110-11111110-11111110-0-1110--|
 pm------- -------- - ---- -------- -------- - ----  

  guitar 1 x4
|----------------------------------------------------|
|----------------------------------------------------|
|----------------------------------------------------|
|----------------------------------------------------|
|----------------------------------------------------|
|-11111110-11111110-0-1110-11111110-11111110-0-1110--|
|pm------- -------- - ---- -------- -------- - ----  |
| guitar 2					     |
|----------------------------------------------------|
|----------------------------------------------------|
|----------------------------------------------------|
|-7-----------6---------9-----------7----------------|
|-5-----------4---------7-----------5----------------|
|----------------------------------------------------|
                                         
outro
   guitar 1&2 x4
|----------------------------------------------------|
|----------------------------------------------------|
|----------------------------------------------------|
|----------------------------------------------------|
|----------------------------------------------------|
|-11111110-------0-11111110-11111110------0-11111110-|
  --------       - -------- --------      - --------  
Comments