Stamp Rachel - Black Tamborine Chords & Tabs

 

Black Tamborine Chords & Tabs

Stamp Rachel Chords & Tabs

Version: 1 Type: Bass Tab 0 ratings
1 star 2 stars 3 stars 4 stars 5 stars
comments

Black Tamborine Bass Tab

Rachel Stamp- Black Tamborine

Enjoy playing to this nice lil bum wiggler....and prangleys sweet 
voice bless him
love sean
----x----



Intro

G|-------------------------------------------------------------|
D|-------------------------------------------------------------|
A|-5---5---5---5---5---8----8---8----8---8---9---9--9---11-10-5I
E|-------------------------------------------------------------|

Pre Chorus
[ Tab from: http://www.guitartabs.cc/tabs/s/stamp_rachel/black_tamborine_btab.html ]
G|-------------------------------------------------------------|
D|-------------------------------------------------------------|
A|--5--5--5--5----3--3--3--3--0-0-0-0-0-0----------------------I
E|-------------------------------------------------------------|

Chorus

G|-------------------------------------------------------------|
D|-3---------6-5-4---------------------------------------------|
A|------5------------5-----------------------------------------I
E|-------------------------------------------------------------|
Comments