Stamp Rachel - Black Cherry Chords & Tabs

 

Black Cherry Chords & Tabs

Stamp Rachel Chords & Tabs

Version: 1 Type: Tab 0 ratings
1 star 2 stars 3 stars 4 stars 5 stars
comments

Black Cherry Tab

Drop D tuning
                                    gradually bend these notes
e------------------------------------------------------------
B--------------------------------------------5--5-5-5--------
G------------------------------------------------------------
D-0--0--3-0--x-x--3-4-5-4-0--3-3-0--0--3-0-------------------
A-0--0--3-0--x-x--3-4-5-4-0--3-3-0--0--3-0-------------------
D-0--0--3-0--x-x--3-4-5-4-0--3-3-0--0--3-0-------------------

[ Tab from: http://www.guitartabs.cc/tabs/s/stamp_rachel/black_cherry_tab.html ]
e--------------------------------------------0--0-0-0------
B--------------------------------------------5--5-5-5------
G----------------------------------------------------------
D-0--0--3-0-----3-4-5-4-0--3-3-0--0--3-0-------------------
A-0--0--3-0-----3-4-5-4-0--3-3-0--0--3-0-------------------
D-0--0--3-0-----3-4-5-4-0--3-3-0--0--3-0-------------------


I can't find any Rachel Stamp guitar tabs anywhere, if anyone has 
any or knows were they are email me please!

Thats all i could figure out, if anyone has any comments/corrections
please email me at jonline01@hotmail.com
Comments