Stalwart - Take It Down Chords & Tabs

 

Take It Down Chords & Tabs

Stalwart Chords & Tabs

Version: 1 Type: Tab 0 ratings
1 star 2 stars 3 stars 4 stars 5 stars
comments

Take It Down Tab

###############################################################################
#This file is the author's own work and represents their interpretation of the#
#song. You may only use this file for private study, scholarship, or research.#
###############################################################################

Corrections on this Tab :
Corrections are brief messages that point out specific errors and how they
can be fixed. These corrections are intended to correct and enhance the tab.
Do not make a correction unless you have something useful to say that will
improve the tab. Thank you.


Tabbed by Matt George 
Email:fuedog213@aol.com
[ Tab from: http://www.guitartabs.cc/tabs/s/stalwart/take_it_down_tab.html ]
Take it down by Stalwart

_________________________________________________________________________________________



E---------------------------------------
B---------------------------------------
G-4---4---2-0---0-0-----0---0---0-----0-
D-------------------0-2---2---2---2-0---
A---------------------------------------
E---3---3-----3-------------------------

E-----------------------------------------------3-
B-----------------------------------------------0-
G-------2-----0-----2-----0-----0-----0---0-----0-
D---------0-----0-----0-----0-----0-----2-------0-
A-0-2-3-----3-----3-----3-----3-----------------2-
E-----------------------------------3-------2-3-3-
Comments