Stale Chofli - For Your Protection Chords & Tabs

 

For Your Protection Chords & Tabs

Stale Chofli Chords & Tabs

Version: 1 Type: Tab 0 ratings
1 star 2 stars 3 stars 4 stars 5 stars
comments

For Your Protection Tab

-------------------------------------------
-------------------------------------------
--444--444--4----777--777--7----------------------------
--444--444--4----777--777--7--555--555--5--999--777--7---
--222--222--2----555--555--5--555--555--5--999--777--7---
------------------------------333--333--3--777--555--5---
[ Tab from: http://www.guitartabs.cc/tabs/s/stale_chofli/for_your_protection_tab.html ]
Repeat that throught the verses, chorus is same notes just different 
struming pattern.  Listent to song at MP3.com under STale Chofli to hear
it.  Second guitar part comes in on verse as follows


Only on high E and string above (B?)

14--14--14--14--14--14--15--15--15--1512--12--12----
--12--12--12--12--12--12--12--12--12----10--10--10--

Comments