Staind - Zoe Jane Chords & Tabs

 

Zoe Jane Chords & Tabs

Staind Chords & Tabs

Version: 8 Type: Tab 0 ratings
1 star 2 stars 3 stars 4 stars 5 stars
comments

Zoe Jane Tab

   
staind
zoe jane
guitar 1 tuning: Eb,Ab,Db,Gb,Bb,Eb
guitar 2 and 3's tuning: Ab,Eb,Ab,Db,Gb,Bb

VERSE
 
(Chords)
    C - D - Em
eb|-x---x---x--|
Bb|-5---7---8--|
Gb|-5---7---9--|
Db|-5---7---9--|
Ab|-3---5---7--|
Eb|-x---x---x--|
 

Guitar 1     Repeat
eb|----------------------------------------------------------|
Bb|----5------5--------7--------7----------8--------8--------|
Gb|------5------5--------7--------7-----------9--------9-----|
Db|----------------------------------------------------------|
Ab|-3------3-------3/5-------5--------5/7--------7-----------|
Eb|----------------------------------------------------------|
 
 
 
Guitar 2 (Chimes)
 

Bb|------<5>------|
Gb|---<5>---<5>---|
Db|-<4>-------<5>-|
Ab|---------------|
Eb|---------------|
Ab|---------------|
 
[ Tab from: http://www.guitartabs.cc/tabs/s/staind/zoe_jane_tab_ver_8.html ]
Guitar 3  (Verse 1 and 2 Only)
Bb|-8----10---12------8---10----|
Gb|--------------------------9--|
Db|-----------------------------|
Ab|-----------------------------|
Eb|-----------------------------|
Ab|-----------------------------|
 
 
 
 
 
CHORUS
 
(Chords)
    G - F#m - Em - C
eb|-x----x----x----x--|
Bb|-12---10---8----5--|
Gb|-12---11---9----5--|
Db|-12---11---9----5--|
Ab|-10---9----7----3--|
Eb|-x----x----x----x--|
 
Guitar 1
        
|------------------------------------------------------------------
|----12-------12----------10---------10----------8--------8--------
|-------12-------12-----------11---------11---------9--------9-----
|------------------------------------------------------------------
|-10-------10--------10\9---------9----------9/7--------7----------
|------------------------------------------------------------------
 

    Repeat
------------------------|
------5------5----------|
--------5------5--------|
------------------------|
-7\3------3-------3/10--|
------------------------|
 

Guitar 2
 
(Chords)
    G -  D - Em - C
Bb|----------------------------|
Gb|----------------------------|
Db|----------10-9-7------------|
Ab|-10---5-------------7----3--|
Eb|-10---5-------------7----3--|
Ab|-10---5-------------7----3--|
 
 
 
Guitar 2 outro
 
Bb|-------------------------------------
Gb|------0--------0---------0-------0---
Db|----9---9----9---9-----7---7---7---7-
Ab|-10-------10---------9-------9-------
Eb|-------------------------------------
Ab|-------------------------------------
 
    Repeat
Bb|-------------------------------------|
Gb|------0--------0---------0-------0---|
Db|----5---5----5---5-----2---2---2---2-|
Ab|--7--------7---------3-------3-------|
Eb|-------------------------------------|
Ab|-------------------------------------|
 
 
 
That's it..Listen to the CD to put all the pieces together
Comments