Staind - Zoe Jane Chords & Tabs

 

Zoe Jane Chords & Tabs

Staind Chords & Tabs

Version: 7 Type: Tab 0 ratings
1 star 2 stars 3 stars 4 stars 5 stars
comments

Zoe Jane Tab

   
This is a cool song from Aaron to his daughter and not as hard as it looks.
I'm almost positive it's right.  The new Staind CD rocks!

Tuning: Low to High (Eb-Ab-Db-Gb-Bb-Eb)  (Typical Staind tuning)

Verse (Acoustic)

Eb--------------------------------------------------------------
Bb-------5-----5-------7-----7-------8-----8-----8-----8--------
Gb---------0-----0-------0-----0-------0-----0-----0-----0------
Db-----------5-------------7-------------9-----------9----------
Ab-----3-----------3/5-----------5/7-----------7----------------
Eb--------------------------------------------------------------

Verse (Clean Electric)
       C     D    Em    Em
Eb------------------------------------------------------
Bb----------------(8)---(8)-----------------------------(optional)
Gb-----5-----7-----9-----9------------------------------
Db-----5-----7-----9-----9------------------------------
Ab-----3-----5-----7-----7------------------------------
Eb------------------------------------------------------

Chorus (Acoustic)

Eb---------------------------------------------------------------------
Bb--------12------12------12------12------10------10-----10------10----
Gb-----------0-------0-------0-------0-------0-------0------0-------0--
Db-------------12--------------12--------------12-------------12-------
Ab-----10--------------10---------------9--------------9---------------
Eb---------------------------------------------------------------------

Chorus (continued) (Acoustic)
[ Tab from: http://www.guitartabs.cc/tabs/s/staind/zoe_jane_tab_ver_7.html ]
Eb---------------------------------------------------------------------
Bb-------8-----8-----8-----8------5-----5-----5-----5------------------
Gb---------0-----0-----0-----0------0-----0-----0-----0----------------
Db-----------9-----------9------------5-----------5--------------------
Ab-----7-----------7------------3-----------3--------------------------
Eb---------------------------------------------------------------------

Chorus (Distortion Electric)      ( )= Optional Chord
       G      D       Em       C
Eb---------------------------------------------------------------------
Bb---------------------------------------------------------------------
Gb------------(7)------(9)-----5---------------------------------------
Db-----5-----5(7)-----2(9)-----5---------------------------------------
Ab-----5-----5(5)-----2(7)-----3---------------------------------------
Eb-----3-----2--------0------------------------------------------------

End on G
       
Eb-----3---------
Bb-----3---------
Gb-----0---------
Db-----0---------
Ab-----2---------
Eb-----3---------

To help you through the song I'm throwing in these chord shapes for the acoustic
part to help you with the picking.  It's really easy I promise.
       C     D    Em     G     G/D
Eb---------------------------------------------------------------------
Bb-----5-----7-----8-----12-----10-------------------------------------
Gb-----0-----0-----0------0------0-------------------------------------
Db-----5-----7-----9-----12-----12-------------------------------------
Ab-----3-----5-----7-----10------9-------------------------------------
Eb---------------------------------------------------------------------
Comments