Staind - Zoe Jane Chords & Tabs

 

Zoe Jane Chords & Tabs

Staind Chords & Tabs

Version: 6 Type: Tab 0 ratings
1 star 2 stars 3 stars 4 stars 5 stars
comments

Zoe Jane Tab

Song: Zoe Jane
Artist: Staind
Tabbed by: Ryan VanPatten(futrebartender5@netscape.com) and Carlos Martinez

This is the first tab of this song so...i'm not completly sure about it all, but
u can help figure it out and tab ur own up after but this should be good enough rite now.

Verse
-----2------2-------4-----4-------6-----6-----6---------
--------------------------------------------------------
--4----4------4-4/6---6-----6-6/8---8-----8-----8-------
--4------4------4/6-----6-----6/8-----8-----8-----8-----
--------------------------------------------------------
--------------------------------------------------------
[ Tab from: http://www.guitartabs.cc/tabs/s/staind/zoe_jane_tab_ver_6.html ]
Chorus
--------------------------------------------------------
--------------------------------------------------------
--------------------------------------------------------
--4--4--4--4--4--4-----2--2--2--2--2--2-----------------
--4--4--4--4--4--4-----2--2--2--2--2--2-----------------
--2--2--2--2--2--2-----1--1--1--1--1--1-----------------

Outro
--6-----6-----6-----6------4-----4-----4-----4---------
-------------------------------------------------------
----8-----8-----8-----8------6-----6-----6-----6-------
------8-----8-----8-----8------6-----6-----6-----6-----
-------------------------------------------------------
-------------------------------------------------------

--2-----2-----2-----2-----------------------------------
---------------------------3------3-----3-----3---------
----4-----4-----4-----4--------6------6-----6-----6-----
------4-----4-----4-----4----6------6-----6-----6-------
--------------------------------------------------------
--------------------------------------------------------
Comments