Staind - Zoe Jane Chords & Tabs

 

Zoe Jane Chords & Tabs

Staind Chords & Tabs

Version: 3 Type: Tab 0 ratings
1 star 2 stars 3 stars 4 stars 5 stars
comments

Zoe Jane Tab

   
I saw staind play this live...This is how it goes
 
STANDARD TUNEING
e-------------------------------------------------------------
b-----5-------5-------7------7-------8------8-----8-------8---
g-------5-------5-------7------7-------9------9-----9-------9-
d-------------------------------------------------------------
a--3-------3--------5------5-------7------7-----7------7------
E-------------------------------------------------------------
[ Tab from: http://www.guitartabs.cc/tabs/s/staind/zoe_jane_tab_ver_3.html ]
      G         F/G         Em         C
e--2-x-x-x-x--2-x-x-x-x--0-x-x-x-x--0-x-x-x-x-
b--2-x-x-x-x--2-x-x-x-x--0-x-x-x-x--1-x-x-x-x-
g--0-x-x-x-x--0-x-x-x-x--0-x-x-x-x--0-x-x-x-x-
d--0-x-x-x-x--0-x-x-x-x--2-x-x-x-x--2-x-x-x-x-
a--2-x-x-x-x--/-x-x-x-x--2-x-x-x-x--3-x-x-x-x-
E--3-x-x-x-x--2-x-x-x-x--0-x-x-x-x----x-x-x-x-
       so I wanna hold you.....Chorus/also bridge

e---------------------------------------------------------------------------
b--12-----12----12----12---10----10---10---10-----8--8--8--8---5--5--5--5---
g---12-----12----12----12---12----12---12---12-----9--9--9--9---5--5--5--5--
d---------------------------------------------------------------------------
a-10-----10----10----10----9------9----9----9----7--7--7--7---3--3--3--3----
E---------------------------------------------------------------------------
   Picking at end of song over singing
Comments