Staind - Zoe Jane Chords & Tabs

 

Zoe Jane Chords & Tabs

Staind Chords & Tabs

Version: 1 Type: Tab 2 ratings
1 star 2 stars 3 stars 4 stars 5 stars
comments

Zoe Jane Tab

Staind
“Zoe Jane”
By Sean McCarthy   
If something needs fixed email me at Murphy17@aol.com

I know Staind normally tunes down half a step, but here's 
how to play it in standard tuning.

Intro 

E   --------------------------------------------------
B   ----4-----4-----6-----6-----7-----7-----7-----7---
G   ------4-----4-----6-----6-----8-----8-----8-----8-
D   --x-----------x-----------x-----------x-----------
A   --2-----2-----4-----4-----6-----6-----6-----6-----
E   --------------------------------------------------

Verse 

E   --------------------------------------------------
B   ----4-----4-----6-----6-----7-----7-----7-----7---
G   ------4-----4-----6-----6-----8-----8-----8-----8-
D   --x-----------x-----------x-----------x-----------
A   --2-----2-----4-----4-----6-----6-----6-----6-----
E   --------------------------------------------------

Chorus
[ Tab from: http://www.guitartabs.cc/tabs/s/staind/zoe_jane_tab.html ]
E   -----------------------------------
B   ----11------11------11------11-----
G   -------11------11------11------11--
D   --x---------------x----------------
A   --9-------9-------9-------9--------
E   -----------------------------------

E   -------------------------------
B   ----9------9------9------9-----
G   ------10-----10-----10-----10--
D   --x-------------x--------------
A   --8------8------8------8-------
E   -------------------------------

E   ---------------------------------------------------
B   ----7-----7-----7-----7-----3-----3-----3-----3----
G   ------8-----8-----8-----8-----3-----3-----3-----3--
D   --x-----------x-----------x-----------x------------
A   --6-----6-----6-----6-----1-----1-----1-----1------
E   ---------------------------------------------------

        Intro (Play Intro 4x)
	Verse 1 (Play Verse 4x)
	Chorus (Play Chorus 3x)
	Verse 2 (Play Verse 4x)
	Chorus (Play Chorus 6x)
	Verse 3 (Play Verse 4x)
        Chorus (Play Chorus 5x)

Comments