Staind - Waste Chords & Tabs

 

Waste Chords & Tabs

Staind Chords & Tabs

Version: 2 Type: Tab 0 ratings
1 star 2 stars 3 stars 4 stars 5 stars
comments

Waste Tab

   
Title: Waste
Artist: Staind
CD: Break the Cycle
Tabbed By: Anthony Kling

Drop d tunning (low to high) d A d G B E

	(intro)

[ Tab from: http://www.guitartabs.cc/tabs/s/staind/waste_tab_ver_2.html ]
e-----------------------------------------
b-----------------------------------------
g-----------------------------------------
d---------------7--5----------------5--3--
a----0--1--0--0--0-------0--1--0--0--0----
D--0------------------0-------------------


        (Chorus)

e-----------------------
b-----------------------
g-----------------------
d--6\5-5--6-6\5--5--1---
a--6\5-5--6-6\5--5--1---
D--6\5-5--6-6\5--5--1---




Have any corrections (which you shouldn't) or questions e-mail me at Scarrd@hotmail.com
Comments